Song name
# A B C D E F G H I J K L M N O P Q R S T U V W X Y Z

Datura - Song For Hersolo tab

ok. Here is the pain in the fucking ass solo. The first part is extremely easy. But then 
turns into a bitch to play. I'll let you know when that part comes.

-------7~---14h15p14-12-14p12 10\9~--10-9-7----------------|
-5h7h8--------------------------------------9-10-9-8-------|
-----------------------------------------------------------|
-----------------------------------------------------------|
-----------------------------------------------------------|
-----------------------------------------------------------|
Pretty slow picking now:
-----------7-9p7----------------------7-9p7----------------|
---------7-------7------------------7-------7--------------|
-------7-----------7--------------7-----------7------------|
-----9---------------9----------9---------------9----------|
---9-------------------9------9-------------------9--------|
-7--------------------------7------------------------------|

-----------5-7p5--------------------5-7p5--------------------|
---------5-------5----------------5-------5------------------|
-------5-----------5------------5-----------5----------------|
-----7---------------7--------7---------------7--------------|
---7-------------------7----7-------------------7------------|
-5------------------------5----------------------------------|

After you play that TWICE you do it again Twice except when you go down you sweep pick 
then same slow speed back up. Not this is kind of a bitch to

play because it's accoustic. But n0t 2 bad

-----------------------------7--14h15p14-12-14p12---------------|
-----------------0~-0--5h7h8-----------------------14~-14-------|
-------------3-2------------------------------------------------|
-7~----7--5-----------------------------------------------------|
-5~--5----------------------------------------------------------|
----------------------------------------------------------------|

-------5~-------------------------------------------------------|
-5h7h8----7-5-3p0-3/5-------------------------------------------|
----------------------------------------------------------------|
----------------------------------------------------------------|
----------------------------------------------------------------|
----------------------------------------------------------------|
This part iz tha bitch part. Hella Hard to play.
-0-------2-------3-------2---0----------------------------------|
---0--0----0---0---0---0---0---0--------------------------------|
-2---2---2---2---2---2------------------------------------------|
----------------------------------------------------------------|
-2-------2-------2----------------------------------------------|
----------------------------------------------------------------|
Play that twice then:
-2-------3-------x-5-------3---2--------------------------------|
---0---0---0---2-----0---0---0---0------------------------------|
-2---2---2---2-----2---2----------------------------------------|
----------------------------------------------------------------|
-2-------2---------2--------------------------------------------|
----------------------------------------------------------------|
Then play that twice then go back to the first part, then the chorus i think, and an 
that i havnt quite figured 0ut how 2 play.
Tap to rate this tab
# A B C D E F G H I J K L M N O P Q R S T U V W X Y Z