Song name
# A B C D E F G H I J K L M N O P Q R S T U V W X Y Z

Datus Tribe - Lakambini Bottom tab

song: lakambini bottom
artis: datu's tribe
album: fat burner


intro: G-C(4x)
       G-D-C(4x)

     G		   C
e|---3---3------3--0---0-----0---------|
B|---3-----3-------1-----1------1------|
G|---0-------0-----0-------0-----------|
D|---0-------------2-------------------| (4x)
A|---2-------------3-------------------|
E|---3---------------------------------|

    G	     D	     C
e|------------------------------------|
B|------------------------------------|
G|-----------7-------5----------------|
D|--5--------7(4x)---5(4x)------------| (4x)
A|--5(4x)----5-------3----------------|
E|--3---------------------------------|


e|---5-3-5-3-7-3-2-3-2-3-5-------------|
B|-------------------------------------|
G|-------------------------------------|
D|-------------------------------------|
A|-------------------------------------|
E|-------------------------------------|

e|---5-3-5-3-7-7-9-11/9-7----------------|
B|---------------------------------------|
G|---------------------------------------|
D|---------------------------------------|
A|---------------------------------------|
E|---------------------------------------|

e|---5-3-5-3-7-5-3-3/5-3-5^-7-9-11-9-7--------|
B|--------------------------------------------|
G|--------------------------------------------|
D|--------------------------------------------|
A|--------------------------------------------|
E|--------------------------------------------|

     G
pag baba pa lang ako
 D                E
tinitigan ko na tibok ng puso ko
  C
niyayanig ng lakad niya
 G            D
46 ang waist A ang bra
     E                         C
three hundre sixty  pounds na gumigiling sa kalsada

 G-D-C(2x)

     G
pag siya'y ngumingiti
        D
hirap ang facial muscles niya
   E                        C
kahit hindi ko nakikita love na love ko chick bones niya
  G 		        D
pag siya'a tumadabog lumilindol sa barangay
  E		        C
pag siya'y tumatawa, bilbil niya'y kumakaway

G-D-C
binibining sexy(4x)

    G	     E	    	D	        C
e|--------------------------------------------------|
B|--------------------------------------------------|
G|-----------9-------7------7-------5------5--------|
D|--5--------9(6x)---7(4x)--7-------5(4x)--5--------|
A|--5(6x)----7-------5------5(4x)---3------3(4x)----|
E|--3-----------------------5--------------3--------|
      G		       E
eh anu ngayon kung mataba siya,
  D                            C
mas masarap daw mag mahal ng babaeng lumbalumba
      G			 E
eh ano ngayon kung mabigat siya
   D
embes na tawaging
  A      B5        C#5
baboy porkchop, lechon baka, balyena, sizzling pork
          D
is more to love

allright

G-D-C
binibining sexy(type kita)
G-D-C
binibining sexy(ah, matabang mataba ka)
G-D-C
binibining sexy(love kita)
G-D-C
binibining sexy


G-D-C(4x)

      G               E
legs niya'y mala troso ang dating
  D
pamatay ng dalag
pede puddle sa hazing
  G			  E
salawal niya'y pedeng trapal pag may libing
     D
ano man ang sabihin sa friendster
sa eskwela sa bahay, pati na sa barangay
						     A-B5-C#5
wala na pang karapatang ma inlove sa ubod ng taba....
allright

repeat chorus(8x)
do chord pattern G-D-C 8x

add my friendster - mykro85@yahoo.com
Tap to rate this tab
# A B C D E F G H I J K L M N O P Q R S T U V W X Y Z