Song name
# A B C D E F G H I J K L M N O P Q R S T U V W X Y Z

Daughter - Candles tab

TUNING: Drop D
Capo on 4th (All tab relative to capo)

Part 1
e|--------------------------------------------------------------------|
B|---0-------0-------0-------0--------0-----0-----0---0-----0-----0---|
G|-----0-------0-------0-------0------0-----0-----0---0-----0-----0---|
D|-5-----5/7-----7\4-----4/5-----5------0-----0---------0-----0-------|Repeat
A|----------------------------------3-----3-----3---2-----2-----2-----|
D|--------------------------------------------------------------------|

Part 2 (leads on from end of part 1)
e|--------------------------------------------------------------------|
B|---0-----0-----0-----0-----0-----0---0-----0-----0-----0-------0----|
G|---0-----0-----0-----0-----0-----0---0-----0-----0-----0-------0----|
D|-----0-----0-----0-----0-----0---------0-----0-----0-----0-------0--|
A|-0-----0-----0-----0-----0-----0------------------------------------|
D|-----------------------------------5-----5-----5-----5-----0-2------|

e|----------------------------------------------------------------------|
B|----0------0---0-----0-----0---0-----0-----0-----0-----0--------------|
G|----0------0---0-----0-----0---0-----0-----0-----0-----0--------------|
D|------0----------0-----0---------0-----0-----0-----0-----0------------|
A|----------------------------------------------------------------------|
D|--2------2---0-----0-----0---5-----5-----5-----5-----5-----0-2--------|etc...

Thats the basis, if you listen and play along you'll work out the timings.
She also adds in a couple of extra notes at times:

e|------------------------------------------|
B|---0-----0-----0-----0-----0--------------|
G|---0-----5-----5-----5-----5--------------|
D|-----0-----0-----0-----0-----0------------|
A|------------------------------------------|
D|-5-----5-----5-----5-----5-----0-2--------|etc...

and

e|------------------------------------------|
B|---0-----3-----3-----3-----3--------------|
G|---0-----0-----0-----0-----0--------------|
D|-----0-----0-----0-----0-----0------------|
A|------------------------------------------|
D|-5-----5-----5-----5-----5-----0-2--------|etc...


Hope this helps
Tap to rate this tab
# A B C D E F G H I J K L M N O P Q R S T U V W X Y Z