Song name
# A B C D E F G H I J K L M N O P Q R S T U V W X Y Z

Daughter - Candles tab

Drop D tuning, capo on 4th fret

INTRO:
Part 1 of intro
e|-----------------------------------------------------------------------------------|
B|--------0---------0---------0---------0---------------------------------------0----|
G|---0---------0---------0---------0-------------0---------0---------0---------------|
D|-5---5----7----7----4----4----5----5------0---------0---------0---------0----------|
A|-----------------------------------------3---3----3----3----2----2----2----2-------|
E|-----------------------------------------------------------------------------------|

repeat once ^^

part 2 of intro
e|----------------------------------------------------------------------------|
B|----------------------------------------------------------------------------|
G|-------0--------0-------0--------0----------0-----------------0-------------|
D|---0-------0--------0--------0----------0--------0--------0--------0--------|
A|-0---0---0---0----0---0----0---0-------------------0------------------------|
E|------------------------------------7p5---5----5------5p2---2----2---2------|

e|------------------------------------------------------------------------------------|
B|---------------------0------------------------------------0---------0---------------|
G|--------0---------0-------------0---------------------------0---------0----0--------|
D|----0--------0---------0-----0----0----0-------0-----------------------------0------|
A|------0---0-----0---------0----------0-----------------------------------0-----0----|
E|-2p0---------------------------------------7p5----5-5-2--------2--0-----------------|

VERSE:

e|-----------------------------------------------------------------------------------|
B|--------0---------0---------0---------0---------------------------------------0----|
G|---0---------0---------0---------0-------------0---------0---------0---------------|
D|-5---5----7----7----4----4----5----5------0---------0---------0---------0----------|
A|-----------------------------------------3---3----3----3----2----2----2----2-------|
E|-----------------------------------------------------------------------------------|

play 4 times ^^

e|------------------------------------------------------------------------------|
B|------------------------------------------------------------------------------|
G|-------0--------0--------0--------0-------------------------------------------|
D|---0--------0-------0--------0------------------------------------------------|
A|-0---0----0---0---0---0----0---0----------------------------------------------|
E|------------------------------------------------------------------------------|


CHORUS:
e|------------------------------------------------------------------------------|
B|------0--------0--------0--------0---------0---------0--------0--------0------|
G|--0--------0--------0--------0--------0---------0---------0--------0----------|
D|----0--------0--------0--------0--------0---------0---------0--------0--------|
A|------------------------------------------------------------------------------|
E|-2-------2--------4--------4--------5---------5---------5--------5------------|

e|------------------------------------------------------------------------------|
B|------0--------0--------0--------0---------0---------0---------3---------3----|
G|--0--------0--------0--------0--------0---------0---------0----0-----0---0----|
D|----0--------0--------0--------0--------0---------0---------0--------0--------|
A|------------------------------------------------------------------------------|
E|-2-------2--------4--------4--------5---------5---------5--------5------------|

e|------------------------------------------------------------------------------|
B|------0--------0--------0--------0---------0---------0--------0--------0------|
G|--0--------0--------0--------0--------0---------0---------0--------0----------|
D|----0--------0--------0--------0--------0---------0---------0--------0--------|
A|------------------------------------------------------------------------------|
E|-2-------2--------4--------4--------5---------5---------5--------5------------|

e|-----------------------|  Each chord is held for a longer time here. Listen to the song
B|--0--0--0--0--0--0-----|  and you'll pick it up.
G|-----------------------|
D|-----------------------|
A|-----------------------|
E|--2--4--5--2--4--5-----|

e|-----------------------------------------------------------------------------|
B|-----------------------------------------------------------------------------|
G|---0---0---0---0---0---0---0---0---0---0---0---0---0---0---0---0-------------|l
D|----------------------------------------------------0-------0---0------------|
A|-----------------------------------------------------------------------------|
E|-2---2---2---2---0---0---0---0---5---5---5---5---5---5---5---5---------------|

e|-----------------------------------------------------------------------------|
B|----------------------------------------1---1---1---1---1---1---1------------|
G|---0---0---0---0---0---0---0---0---0---0---0---0---0---0---0---0-------------|l
D|-------0---0---0-------------------0----------------0---0---0---0------------|
A|-----------------------------------------------------------------------------|
E|-2---2---2---2---0---0---0---0---5---5---5---5---5---5---5---5---------------|

e|-------------------------------------------------------------------------|
B|-------------------------------------------------------------------------|
G|---0---0---0---0---0---0---0---0---0---0---0---0---0---0---0---0---------|l
D|-------0---0---0--------------------0--0---0----0---0---0---0---0--------|  x2
A|-------------------------------------------------------------------------|
E|-2---2---2---2---0---0---0---0---5---5---5---5---5---5---5---5-----------|


Go into part 1 of the intro/verse again

Then the chorus again

And all the bits after that

For the last chorus:

e|-------------------------------------------------------------------------------|
B|-------0--------0--------0--------0--------0----------0---------0--------0-----|
G|---0-------0--------0--------0--------0----------0---------0---------0---------|
D|-2---2---2---2----4---4----4---4----0---0-----0----0----0----0----0---0--------|
A|-------------------------------------------------------------------------------|
E|-------------------------------------------------------------------------------|

e|-------------------------------------------------------------------------------|
B|-------0--------0--------0--------0--------3----------3---------3---------3----|
G|---0-------0--------0--------0--------0----0-----0----0----0----0----0---0-----|
D|-2---2---2---2----4---4----4---4----0---0-----0----0----0----0----0---0--------|
A|-------------------------------------------------------------------------------|
E|-------------------------------------------------------------------------------|

e|-------------------------------------------------------------------------------|
B|-------0--------0--------0--------0--------0----------0---------0--------0-----|
G|---0-------0--------0--------0--------0----------0---------0---------0---------|
D|-2---2---2---2----4---4----4---4----0---0-----0----0----0----0----0---0--------| x2
A|-------------------------------------------------------------------------------|
E|-------------------------------------------------------------------------------|

and last but not least

e|-----------------------------------------------------------------------------|
B|-----------------------------------------------------------------------------|
G|---0---0---0---0---0---0---0---0---0---0---0---0---0---0---0---0-------------|l
D|----------------------------------------------------0-------0---0------------|
A|-----------------------------------------------------------------------------|
E|-2---2---2---2---0---0---0---0---5---5---5---5---5---5---5---5---------------|

e|-----------------------------------------------------------------------------|
B|----------------------------------------1---1---1---1---1---1---1------------|
G|---0---0---0---0---0---0---0---0---0---0---0---0---0---0---0---0-------------|l
D|-------0---0---0-------------------0----------------0---0---0---0------------|
A|-----------------------------------------------------------------------------|
E|-2---2---2---2---0---0---0---0---5---5---5---5---5---5---5---5---------------|

e|-------------------------------------------------------------------------|
B|-------------------------------------------------------------------------|
G|---0---0---0---0---0---0---0---0---0---0---0---0---0---0---0---0---------|l
D|-------0---0---0--------------------0--0---0----0---0---0---0---0--------|
A|-------------------------------------------------------------------------|
E|-2---2---2---2---0---0---0---0---5---5---5---5---5---5---5---5-----------|

e|-------------------------------------------------------------------------|
B|-------------------------------------------------------------------------|
G|---0---0---0---0---0---0---0---0---0---0---0---0-------------------------|l
D|-------0---0---0--------------------0--0---0----0------------------------|l
A|-------------------------------------------------------------------------|
E|-2---2---2---2---0---0---0---0---5---5---5---5---------------------------|l

Hope you like it!


************************************

| /   slide up
| \   slide down
| h   hammer-on
| p   pull-off
| ~   vibrato
| +   harmonic
| x   Mute note
| b   Bend
| pb  Pre-bend
| br  Bend release
| pbr Pre-bend release
| brb Bend release bend

************************************
Tap to rate this tab
# A B C D E F G H I J K L M N O P Q R S T U V W X Y Z