Song name
# A B C D E F G H I J K L M N O P Q R S T U V W X Y Z

Daughter - Youth tab

I just made the tab for the second guitar, in the bridge, i think.

e ------------------------------------------|
B ------------------------------------------|
G ------------------------------------------|
D ---10-10-10-10/12----10-10-10-10/12-------|
A ---12-12-12-12/14----12-12-12-12/14-------|
E ------------------------------------------|

e ------------------------------------------|
B ------------------------------------------|
G ------------------------------------------|
D ---14-14-14-14-14----9--9--9--9--9--------|
A ---15-15-15-15-15----10-10-10-10-10-------|
E ------------------------------------------|

e ------------------------------------------|
B ------------------------------------------|
G ------------------------------------------|
D ---10-10-10-10/12----10-10-10-10/12-------|
A ---12-12-12-12/14----12-12-12-12/14-------|
E-------------------------------------------|

e ------------------------------------------|
B ------------------------------------------|
G ------------------------------------------|
D ---14-14-14-14-14----17-17-17-17-17-------|
A ---15-15-15-15-15----19-19-19-19-19-------|
E ------------------------------------------|
Tap to rate this tab
# A B C D E F G H I J K L M N O P Q R S T U V W X Y Z