Song name
# A B C D E F G H I J K L M N O P Q R S T U V W X Y Z

Daughter - Youth tab

I realise that this is not note for note perfect but I think I have simplified it 
a bit. Hope you like it!

Guitar 1

e|------------------------------------1---1---1---1---3---3---3---3---|
B|---1---1---1---1---1---1---1---1------------------------------------|
G|----------------------------------2---2---2---2---0---0---0---0-----|
D|-2---2---2---2---3---3---3---3--------------------------------------|
A|--------------------------------------------------------------------|
E|--------------------------------------------------------------------|

Guitar 2

e|---3---5---8---7---|
B|-------------------|
G|-------------------|
D|-------------------|
A|-------------------|
E|-------------------|

 /   slide up
 \   slide down
Tap to rate this tab
 
# A B C D E F G H I J K L M N O P Q R S T U V W X Y Z