Song name
# A B C D E F G H I J K L M N O P Q R S T U V W X Y Z

Daughter - Lifeforms tab

-------------------------------------------------------------------------------
                             LIFEFORMS - Daughter
-------------------------------------------------------------------------------
Tabbed by: k8mc
E-mail: x_k8_xx@yahoo.co.uk

Tuning: DGdgBd'(Open G)

these are the basics, you can play around with the rhythm and how many strings you hit or
leave out at various points

Listen to the song for when to switch sections
I'm not 100% sure about all the chords, but they're there or thereabouts

Igor plays his guitar with a bow for the most part but I've tabbed the bit he picks in 
the first half of the chorus

have fun!
        
        VERSE
 {only
  to
  start}
d|-----|----------------|----------------|----------------|----------------|
B|-----|----------2-----|----------2-----|----------2-----|----------2-----|
g|-----|--4---4-------4-|--4---4-------4-|--4---4-------4-|--4---4-------4-|
D|{4p0}|----------------|----------------|----------------|----------------|
G|-----|4---4---4---4---|4---4---4---4---|4---4---4---4---|4---4---4---4---|
D|-----|----------------|----------------|----------------|----------------|

      d|----------------|----------------|----------------|----------------|
      B|----------2-----|----------2-----|----------2-----|----------2-----|
      g|--------------4-|--------------4-|--------------4-|--------------4-|
      D|--4---4---------|--4---4---------|--4---4---------|--4---4---------|
      G|0---0---0---0---|0---0---0---0---|0---0---0---0---|0---0---0---0---|
      D|----------------|----------------|----------------|----------------|
        
CHORUS

Elena
d|----------------|----------------|----------------|----------------| ||
B|----------------|----------------|----------------|----------------| ||
g|----------------|----------------|----------------|----------------| ||
D|----------------|----------------|----------------|----------------| ||
G|--4---4---4---4-|--4---4---4---4-|--6---6---6---6-|--6---6---6---6-| ||
D|5---5---5---5---|5---5---5---5---|7---7---7---7---|7---7---7---7---| ||
                                                                       ||
d|----------------|----------------|----------------|----------------| ||
B|----------------|----------------|----------------|----------------| ||
g|----------------|----------------|----------------|----------------| ||
D|----------------|----------------|----------------|----------------| ||
G|--11--11--11--11|--11--11--11--11|--7---7---7---7-|--6---6---6---6-| ||
D|12--12--12--12--|12--12--12--12--|9---9---9---9---|7---7---7---7---| || x2

d|0-0-0-0-0-0-0-0-|0-0-0-0-0-0-0-0-|0-0-0-0-0-0-0-0-|0-0-0-0-0-0-0-0-| ||
B|0-0-0-0-0-0-0-0-|0-0-0-0-0-0-0-0-|0-0-0-0-0-0-0-0-|0-0-0-0-0-0-0-0-| ||
g|0-0-0-0-0-0-0-0-|0-0-0-0-0-0-0-0-|0-0-0-0-0-0-0-0-|2-2-2-2-2-2-2-2-| ||
D|0-0-0-0-0-0-0-0-|0-0-0-0-0-0-0-0-|0-0-0-0-0-0-0-0-|2-2-2-2-2-2-2-2-| ||
G|4-4-4-4-4-4-4-4-|4-4-4-4-4-4-4-4-|4-4-4-4-4-4-4-4-|0-0-0-0-0-0-0-0-| ||
D|5-5-5-5-5-5-5-5-|5-5-5-5-5-5-5-5-|5-5-5-5-5-5-5-5-|0-0-0-0-0-0-0-0-| ||
                                                                       ||
d|0-0-0-0-0-0-0-0-|0-0-0-0-0-0-0-0-|0-0-0-0-0-0-0-0-|0-0-0-0-0-0-0-0-| ||
B|0-0-0-0-0-0-0-0-|0-0-0-0-0-0-0-0-|0-0-0-0-0-0-0-0-|0-0-0-0-0-0-0-0-| ||
g|0-0-0-0-0-0-0-0-|0-0-0-0-0-0-0-0-|0-0-0-0-0-0-0-0-|0-0-0-0-0-0-0-0-| ||
D|2-2-2-2-2-2-2-2-|2-2-2-2-2-2-2-2-|2-2-2-2-2-2-2-2-|0-0-0-0-0-0-0-0-| ||
G|0-0-0-0-0-0-0-0-|0-0-0-0-0-0-0-0-|0-0-0-0-0-0-0-0-|0-0-0-0-0-0-0-0-| ||
D|2-2-2-2-2-2-2-2-|2-2-2-2-2-2-2-2-|2-2-2-2-2-2-2-2-|0-0-0-0-0-0-0-0-| || x2
                                                   (leave last bar out to
                                                    lead back into verse)

Igor
d|----------------|----------------|----------------|----------------| ||
B|--7---7---7---7-|--7---7---7-----|7---7---7---7---|7---7---7---7\5-| ||
g|7---7---7---7---|7---7---7---7/9-|--9---9---9---9-|--9---9---9-----| ||
D|----------------|----------------|----------------|----------------| ||
G|----------------|----------------|----------------|----------------| ||
D|----------------|----------------|----------------|----------------| ||
                                                                       ||
d|----------------|----------------|----------------|----------------| ||
B|--5---5---5---5-|--5---5---5---5-|--3---3---3---3-|--2---2---2---2-| ||
g|7---7---7---7---|7---7---7---7---|4---4---4---4---|2---2---2---2---| ||
D|----------------|----------------|----------------|----------------| ||
G|----------------|----------------|----------------|----------------| ||
D|----------------|----------------|----------------|----------------| || x2

VERSE

CHORUS

BREAKDOWN

d|0-0-0-0-0-0-0-0-|0-0-0-0-0-0-0-0-|0-0-0-0-0-0-0-0-|0-0-0-0-0-0-0-0-|
B|0-0-0-0-0-0-0-0-|0-0-0-0-0-0-0-0-|0-0-0-0-0-0-0-0-|0-0-0-0-0-0-0-0-|
g|4-4-4-4-4-4-4-4-|4-4-4-4-4-4-4-4-|4-4-4-4-4-4-4-4-|4-4-4-4-4-4-4-4-|
D|0-0-0-0-0-0-0-0-|0-0-0-0-0-0-0-0-|0-0-0-0-0-0-0-0-|0-0-0-0-0-0-0-0-|
G|4-4-4-4-4-4-4-4-|4-4-4-4-4-4-4-4-|4-4-4-4-4-4-4-4-|4-4-4-4-4-4-4-4-|
D|5-5-5-5-5-5-5-5-|5-5-5-5-5-5-5-5-|5-5-5-5-5-5-5-5-|5-5-5-5-5-5-5-5-|
                                                                      
d|0-0-0-0-0-0-0-0-|0-0-0-0-0-0-0-0-|0-0-0-0-0-0-0-0-|0-0-0-0-0-0-0-0-|
B|0-0-0-0-0-0-0-0-|0-0-0-0-0-0-0-0-|0-0-0-0-0-0-0-0-|0-0-0-0-0-0-0-0-|
g|1111111111111111|1111111111111111|6-6-6-6-6-6-6-6-|7-7-7-7-7-7-7-7-| 
D|1212121212121212|1212121212121212|0-0-0-0-0-0-0-0-|0-0-0-0-0-0-0-0-|
G|1111111111111111|1111111111111111|6-6-6-6-6-6-6-6-|7-7-7-7-7-7-7-7-|
D|1212121212121212|1212121212121212|7-7-7-7-7-7-7-7-|9-9-9-9-9-9-9-9-|



drifting away with time...

d|0---------------|----------------|----------------|----------------| ||
B|0---------------|----------------|----------------|----------------| ||
g|4---------------|----------------|----------------|----------------| ||
D|0---------------|----------------|----------------|----------------| ||
G|4---------------|----------------|----------------|----------------| ||
D|5---------------|----------------|----------------|----------------| ||
                                                                       ||
 [softly]                                                              ||
d|0-0-0-0-0-0-0-0-|0-0-0-0-0-0-0-0-|0-0-0-0-0-0-0-0-|0-0-0-0-0-0-0-0-| ||
B|0-0-0-0-0-0-0-0-|0-0-0-0-0-0-0-0-|0-0-0-0-0-0-0-0-|0-0-0-0-0-0-0-0-| ||
g|1111111111111111|1111111111111111|6-6-6-6-6-6-6-6-|7-7-7-7-7-7-7-7-| ||
D|1212121212121212|1212121212121212|0-0-0-0-0-0-0-0-|0-0-0-0-0-0-0-0-| ||
G|1111111111111111|1111111111111111|6-6-6-6-6-6-6-6-|7-7-7-7-7-7-7-7-| ||
D|1212121212121212|1212121212121212|7-7-7-7-7-7-7-7-|9-9-9-9-9-9-9-9-| || x2

finish on
d|0---------------|
B|0---------------|
g|4---------------|
D|0---------------|
G|4---------------|
D|5---------------|

************************************

| /   slide up
| \   slide down
| h   hammer-on
| p   pull-off
| ~   vibrato
| +   harmonic
| x   Mute note
| b   Bend
| ()  optional

************************************
Tap to rate this tab
# A B C D E F G H I J K L M N O P Q R S T U V W X Y Z