Song name
# A B C D E F G H I J K L M N O P Q R S T U V W X Y Z

Daughter - Still tab



Intro/Verses

E|---------------------|
B|-------------2h4-----|
G|--0---0---0----------|
D|--2---0--------------|
A|----------3----------|
E|---------------------| x3

_____________________________________________________________________________
Chorus
 
Strumming pattern: DUDUDUD

  Em           
Still with feet touching
  C
Still with eyes meeting
  D
Still our hands match
  G
Still with hearts beating
___________________________________________________________________

Outro

Just strum these once. There's no strumming pattern as such.

E|-0---0---0---0-----------|
B|-0---0---0---2h4---------|
G|-0---0---0---0-----------|
D|-2---0---0---0-----------|
A|-0---0---3---0-----------|
E|-0---0---0---0-----------|
Tap to rate this tab
 
# A B C D E F G H I J K L M N O P Q R S T U V W X Y Z