Song name
# A B C D E F G H I J K L M N O P Q R S T U V W X Y Z

Daughter - Love tab

-------------------------------------------------------------------------------
                             Love - Daughter
-------------------------------------------------------------------------------
Tabbed by:  Jordan :-) 
E-mail: jordan.brighton@gmail.com

Tuning:EADGBe

e|--------------------------------------------------------------------------|
B|--------------------------------------------------------------------------|
G|--------------------------------------------------------------------------|
D|--------------------------------------------------------------------------|
A|----2----2----2----2h0----0----0----0----0h2----2----2----2----2h0----0---|
E|--3----3----3----3-----2-----2----2----2-----0----0----0----0------2-----|

e|----------------------|
B|----------------------|
G|----------------------|
D|----------------------|      } Repeats throughout the majority of the song 
A|----0----0----0h2-----|
E|--2----2----2---------|


************************************

| /   slide up
| \   slide down
| h   hammer-on
| p   pull-off
| ~   vibrato
| +   harmonic
| x   Mute note
| b   Bend
| pb  Pre-bend
| br  Bend release
| pbr Pre-bend release
| brb Bend release bend

************************************
Tap to rate this tab
# A B C D E F G H I J K L M N O P Q R S T U V W X Y Z