Song name
# A B C D E F G H I J K L M N O P Q R S T U V W X Y Z

Daughter - Peter tab

Capo 3


E|----------------------------------------------------------------------------|
B|----------------------------------------------------------------------------|
G|--------0-----------0-----------0-----------0-----------0-----------0-------|
D|-----------------------------2-----2-----2-----2-----2-----2-----2-----2----|
A|-----2-----2-----2-----2--3-----------3-----------2-----------2-----------3-|
E|--3-----------3-------------------------------------------------------------|



E|--------------------------------------------------------------------|
B|--------------------------------------------------------------------|
G|---0----------0-----------0-----------0-----------0-----------0-----|
D|2----2-----2-----2-----2-----2-----2-----2-----2-----2-----2-----2--|
A|--------3-----------2-----------2-----------3-----------3-----------|
E|--------------------------------------------------------------------|

this repeats throughout the whole song
Tap to rate this tab
# A B C D E F G H I J K L M N O P Q R S T U V W X Y Z