Song name
# A B C D E F G H I J K L M N O P Q R S T U V W X Y Z

Daughter - Love tab

-------------------------------------------------------------------------------
                                                         Love - Daughter
-------------------------------------------------------------------------------
Tabbed by: melmels97
E-mail:

Tuning:EADGBe

This is repeatedly played throughout the verses
e|---------------------------------------------------------------------------|
B|---------------------------------------------------------------------------|
G|---------------------------------------------------------------------------|
D|---------------------------------------------------------------------------|
A|--4---4---4---4h2---2---2---2---2------------------------------------------|
E|5---5---2---2-----4---4---4---4--------------------------------------------|

This is played throughout the first chorus
e|---------------------------------------------------------------------------|
B|-----------------------12-12-9---------------------------------------------|
G|9s11-11-13-9s11-11-13----------9-9-9--9s11-11-13-9s11-11-13--8-8-8--6-6-6--|
D|---------------------------------------------------------------------------|
A|---------------------------------------------------------------------------|
E|---------------------------------------------------------------------------|
 
e|---------------------------------------------------------------------------|
B|-----------------------12-12-9---------------------------------------------|
G|9s11-11-13-9s11-11-13----------9-9-9---------------------------------------|
D|---------------------------------------------------------------------------|
A|---------------------------------------------------------------------------|
E|-------------------------------------------12----11----9-------------------|

The second chorus is almost exactly the same but ends a little differently
e|---------------------------------------------------------------------------|
B|-----------------------12-12-9---------------------------------------------|
G|9s11-11-13-9s11-11-13----------9-9-9--9s11-11-13-9s11-11-13--8-8-8--6-6-6--|
D|---------------------------------------------------------------------------|
A|---------------------------------------------------------------------------|
E|---------------------------------------------------------------------------|

e|---------------------------------------------------------------------------|
B|-----------------------12-12-9---------------------------------------------|
G|9s11-11-13-9s11-11-13----------9-9-9--9s11-11-13-9s11-11-13----------------|
D|---------------------------------------------------------------------------|
A|---------------------------------------------------------------------------|
E|-------------------------------------------------------------11----9-------|
 
When it gets to the part with all the "ooooh oooh ooohs" you play what is played in the verses.

This is what you play once she begins to sing "Did she make your heart.."
e|---------------------------------------------------------------------------|
B|---------------------------------------------------------------------------|
G|---------------------------------------------------------------------------|
D|---------------------------------------------------------------------------|
A|--4--4-4---4---4-2---2--2--2--2---x2---------------------------------------|
E|5--5-----2---2-----4--4--4--4----------------------------------------------|

"On nights of loveless love...",this is played over and over until the end of the song.
e|---------------------------------------------------------------------------|
B|---------------------------------------------------------------------------|
G|---------------------------------------------------------------------------|
D|---------------------------------------------------------------------------|
A|--4--4-4---4---4-2---2-2---2-2---2-2---2-2---------------------------------|
E|5--5-----2---2-----4-----4-----4-----4-------------------------------------|
Tap to rate this tab
# A B C D E F G H I J K L M N O P Q R S T U V W X Y Z