Song name
# A B C D E F G H I J K L M N O P Q R S T U V W X Y Z

Daughter - Human tab

-------------------------------------------------------------------------------
                             Human - Daughter
-------------------------------------------------------------------------------
Tabbed by: MGBZH


Tuning: Drop C#


   Intro

eb|---------------------------------------------------------------------------|
Bb|---------------------------------------------------------------------------|
Gb|--2-\-4---2-\-4---7--6-----------------------------------------------------|
Db|--0-------0-------0--0-----------------------------------------------------| x3
Ab|--0-------0-------0--0-----------------------------------------------------|
Db|--4-\-5---4-\-5---9--7-----------------------------------------------------|

eb|---------------------------------------------------------------------------|
Bb|---------------------------------------------------------------------------|
Gb|--2-\-4---2-\-4---11--------2-\-4---2-\-4---7--6---6-6---------------------|
Db|--0-------0-------0---------0-------0-------0--0---0-0---------------------| 
Ab|--0-------0-------0---------0-------0-------0--0---0-0---------------------|
Db|--4-\-5---4-\-5---12--------4-\-5---4-\-5---9--7---7-7---------------------|


  
   Verse

eb|---------------------------------------------------------------------------|
Bb|---------------------------------------------------------------------------|
Gb|--2-\-4-4-4--2-\-4-4-4--7-7-7--6-6-6--11-11-11--6-6-6----------------------|
Db|--0-----0-0--0-----0-0--0-0-0--0-0-0--0--0--0---0-0-0----------------------| x4
Ab|--0-----0-0--0-----0-0--0-0-0--0-0-0--0--0--0---0-0-0----------------------|
Db|--4-\-5-5-5--4-\-5-5-5--9-9-9--7-7-7--12-12-12--7-7-7----------------------|


   Chorus

eb|---------------------------------------------------------------------------|
Bb|---------------------------------------------------------------------------|
Gb|--4-4-4-4--7-7-7--6-11-----------------------------------------------------|
Db|--0-0-0-0--0-0-0--0-0------------------------------------------------------|
Ab|--0-0-0-0--0-0-0--0-0------------------------------------------------------|
Db|--5-5-5-5--9-9-9--7-12-----------------------------------------------------|

   Underneath the skin there's a human
   Buried deep within there's a human
  And despite everything I'm still human

eb|---------------------------------------------------------------------------|
Bb|---------------------------------------------------------------------------|
Gb|--2-\-4-4-4--2-\-4-4-4--7-7-7--6-6-6--11-11-11--6-6-6----------------------|
Db|--0-----0-0--0-----0-0--0-0-0--0-0-0--0--0--0---0-0-0----------------------|
Ab|--0-----0-0--0-----0-0--0-0-0--0-0-0--0--0--0---0-0-0----------------------|
Db|--4-\-5-5-5--4-\-5-5-5--9-9-9--7-7-7--12-12-12--7-7-7----------------------|
 But I think I'm dying here


End

eb|---------------------------------------------------------------------------|
Bb|---------------------------------------------------------------------------|
Gb|--4-4-4-4--7-7-7--6-11-----------------------------------------------------|
Db|--0-0-0-0--0-0-0--0-0------------------------------------------------------|
Ab|--0-0-0-0--0-0-0--0-0------------------------------------------------------|
Db|--5-5-5-5--9-9-9--7-12-----------------------------------------------------|
Tap to rate this tab
# A B C D E F G H I J K L M N O P Q R S T U V W X Y Z