Song name
# A B C D E F G H I J K L M N O P Q R S T U V W X Y Z

Daughter - Amsterdam tab

Artist: Daughter
Title: Amsterdam
Album: If You Leave
Year: 2012

Standard tuning, No capo
First tab I've submitted and I figured this out entirely by ear but I'm sure it's mostly correct.

Chords are Am, G, Em, F. (Although not too sure about the Em, but it sounds okay.)

It's the same all the way through except for the bridge, (two thirds of the way through) 
where there's a different pattern for 20 bars until the original pattern comes in again 
over the top.


General pattern (Intro, verse and chorus):
  Am                      G                        Em
e|-----------------------|------------------------|------------------------|
B|-----------------------|------------------------|------------------------|
G|-----------------------|------------------------|------------------------|
D|---2----2-----2-----2--|---2-----2-----2--------|---0-----0-----0-----0--|
A|0----0-----0-----0-----|---------------------3--|------------------------|
E|-----------------------|3-----3-----3-----1-----|3-----3-----3-----3-----|

 F
|------------------------|
|------------------------|
|------------------------|
|---0-----0-----0--------|
|---------------------3--|
|1-----1-----1-----1-----|


Bridge (Two thirds of the way through):
 Am                               G
|----12------12------12------12--|----10------10------10------10--|
|13------13------13------13------|12------12------12------12------|
|--------------------------------|--------------------------------|
|--------------------------------|--------------------------------|
|--------------------------------|--------------------------------|
|--------------------------------|--------------------------------|

 Em                               F
|----10------10------10------10--|----8------8------8------8--|
|12------12------12------12------|10-----10-----10-----10-----|
|--------------------------------|----------------------------|
|--------------------------------|----------------------------|
|--------------------------------|----------------------------|
|--------------------------------|----------------------------|

Lyrics:
Skin off like lightning
Breathing flames from thoraces tray
Your eyes go gray finding
You lock your gaze on to my face

Heavy eye clothing on the roadside
Swinging from the street lights

I hope by the morning I will have grown back
By the morning I will have grown back
I'll escape with him
Show him all my skin
Then I'll go
I'll go home
Amsterdam

I'm a flying kite in the breeze just
Restlessly seeking images a child needs to help them sleep
I was thinking that I should see someone
Just to find out that I'm alright

By the morning I would've grown back
By the morning I would've grown back
I'll escape with him
Showing all my skin
Then I'll go
I'll go home
Amsterdam

I used to dream of
Adventure
When I was younger
With lungs miniature
Good night with killing
Our brain cells
Is this called living
Or something else
Or something else

By the morning I would've grown back x4

:)
Tap to rate this tab
# A B C D E F G H I J K L M N O P Q R S T U V W X Y Z