Song name
# A B C D E F G H I J K L M N O P Q R S T U V W X Y Z

Daughter - Run tab

Daughter - Run
Tabs by Anthony Sciola

This is my first tab. I think it sounds really accurate except for the last measure, but 
I think what I have is close.

Standard Tuning
Capo 3

   Em                              B7
E|-----------------------------------------------------------------|
B|-----------0---------------0---------------0---------------0-----|
G|-----0---------0-----0---------0-----2---------2-----2---------0-|
D|-----2---------------2---------------1---------------1-----------|
A|-2-------2---2---2-------2---2---2-------2---2---2-------2---2---|
E|-----------------------------------------------------------------|

   C                               G                        G/F#
E|-----------------------------------------------------------------|
B|-----------1---------------1-------------------------------------|
G|-----0---------0-----0---------0-----0-----0------------0---0---0|
D|-----2---------------2---------------0---------0-----------------|
A|-3-------3---3---3-------3---3-----------------------------------|
E|---------------------------------3-------3---3----3---3---2---2--|

The chords for the small strumming parts:

Em  - 022000
B7  - 021202
C   - 032010
G   - 320033
G/F#- 200003
Tap to rate this tab
 
# A B C D E F G H I J K L M N O P Q R S T U V W X Y Z