Guitaretab - guitar tabs
Song name
# A B C D E F G H I J K L M N O P Q R S T U V W X Y Z

Daughtry - Breakdown tab

billy_talent_dg
email: msnboardofdirectors@hotmail.com

tuned in drops C#

intro(acoustic)
|---------------------------------------------------------------------------------|
|-----0----------0----------0----------0---------0--------------0----------0------|
|---------2----------2----------2----------2---------2--------------2----------2--|
|------------4----------4----------4----------4-------------------------4---------|
|---------------------------------------------------------------------------------|
|-4------------4----------4-----------4----------------------2------------2-------|

|----------------------------------|
|----0----------0----------0-------|
|--------2----------2----------2---|
|-4----------4----------4----------|
|----------------------------------|
|---2----------2-------------------|

|-----------------------------------------------------------|
|------0----------0-----------------0-----------------------|
|----------2----------2-------------------2---------2h4-----|
|--------------4----------4-----0-------------2h4-----------|
|-----------------------------------------------------------|
|-0--------------0---------------------------------------4--|


Verse(acoustic)
|-------------| just strum these 3 chords and let the open chords ring.
|-------------| listen to song for exact timing and  strum patterns
|-------------|
|-4--2--0--2--|
|-4--2--0--2--|
|-4--2--0--2--|

prechorus(electric)
|-9---5---9---5-12-9---5---9b---4----2-0-2-0-2-0-2-0--|
|-----------------------------------------------------|
|-----------------------------------------------------|
|-----------------------------------------------------|
|-----------------------------------------------------|
|-----------------------------------------------------|


1st chorus (electric)
|-2-0-2-0-4---5-0-5-0-4---2-0-2-0-4---5-0-5-0-4---5-0-5-0-4---5-0-5-0-7---|
|-------------------------------------------------------------------------|
|-------------------------------------------------------------------------|
|-------------------------------------------------------------------------|
|-------------------------------------------------------------------------|
|-------------------------------------------------------------------------|

interlude (electric)
|-2-----4-----9-----|
|-------------------|
|-------------------|
|-------------------|
|-------------------|
|-------------------|

same verse as before
[ Tab from: http://www.guitaretab.com/d/daughtry/153844.html ]
2nd Prechorus
|-9---5---9---5-12-9---5---9b------------------|
|----------------------------------------------|
|----------------------------------------------|
|----------------------------0-0-0-0--2-2-2-2--|
|----------------------------0-0-0-0--2-2-2-2--|
|----------------------------0-0-0-0--2-2-2-2--|
                             . . . .  . . . .

2nd Chorus
|----------------------------------------------------------------------------|
|----------------------------------------------------------------------------|
|---------------------------------------------------------2------------------|
|-4-4-4-4--------2--0----2222-4444--------2--0----222-444-2---2--0----2222-4-|
|-4-4-4-4-4-5-4~-2--0----2222-4444-4-5-4~-2--0----222-444-0---2--0----2222-4-|
|-4-4-4-4--------2--0----2222-4444--------2--0----222-444-----2--0----2222-4-|
2nd interlude
|-2--4-5-2--9---|
|---------------|
|---------------|
|---------------|
|---------------|
|---------------|

bridge

part1
|-----------------------|
|-----------------------|
|-----------------------|
|-4444-xx-4444-xx-------| x4
|-4444-xx-4444-xx-0-22~-|
|-4444-xx-4444-xx-------|

part2
|------------------------|
|------------------------|
|-2---------4444---------|then the guitarist does a few notes that I can't
|-2---2---2-2222-0-0-0-0-|tab out, sorry
|-0---2---2------0-0-0-0-|
|-----2---2------0-0-0-0-|

part3(acoustic)
|----------| strum this 2 times
|----------|
|----------|
|-4--2--0--|
|-4--2--0--|
|-4--2--0--|

riff
|------------------------------| x4  but on the 2nd time have a 1
|------------------------------|     second pause between the end
|------------------------------|     of the riff and start of new riff
|-4-4-4-4--------2--0----2222--|
|-4-4-4-4-4-5-4~-2--0----2222--|
|-4-4-4-4--------2--0----2222--|

|---------------------------------------------------|
|---------------------------------------------------|
|--------------------------------2------------------|
|-4-4-4-4--------2--0----222-444-2---2--0----2222-4-|
|-4-4-4-4-4-5-4~-2--0----222-444-0---2--0----2222-4-|
|-4-4-4-4--------2--0----222-444-----2--0----2222-4-|


|------------------------------------------------|
|------------------------------------------------|
|-2-2-2-2-2-2-2-2----------------2-2-2-2-2-2-2-2-|
|-2-2-2-2-2-2-2-2-4-4-4-4--------2-2-2-2-2-2-2-2-|
|-0-0-0-0-0-0-0-0-4-4-4-4-4-5-4~~0-0-0-0-0-0-0-0-|
|-----------------4-4-4-4------------------------|

|--------------------|
|--------------------|
|--------------------|
|-0000-2222-4444-----| hold the last chord until it fades out
|-0000-2222-4444-----|
|-0000-2222-4444-----|


hope you enjoy:)

and if anyone has any idea's for the next tab or complaints, leave a comment on my profile
thanks:)
Related for Breakdown tab
Advertisement will be closed in 10 seconds