Song name
# A B C D E F G H I J K L M N O P Q R S T U V W X Y Z

Daughtry - You Dont Belong tab

Drop C# tuning  (Db Ab Db Gb Bb Eb)

Off of their new album titled Leave This Town which comes out July 14th

Tabber: yanksandjetsfan

Intro  part 1       (palm mute then slowly release)
E  --------------------------------------------------------------------|
B  --------------------------------------------------------------------|
G  --------------------------------------------------------------------|
D  0-8-7-0-8-10-0-8-7-0-8-10-0-5-3-5-0-8-7-0-8-10-0-8-7-0-8-10-0-5-3-5-|
A  --------------------------------------------------------------------|
E  --------------------------------------------------------------------|

E  ------------------------------------------------------------|
B  ------------------------------------------------------------|
G  ------------------------------------------------------------|
D  0-8-7-0-8-10-0-8-7-0-8-10-0-5-3-5-0-8-7-0-8-10-0-8-7-0-8-10-|
A  ------------------------------------------------------------|
E  ------------------------------------------------------------|

Intro part 2
E  ------------------------------------------------------------------------|
B  ------------------------------------------------------------------------|
G  ------------------------------------------------------------------------|
D  0--0-8-0-0--0-8-10-8-0-7--0--0-8-0-0-----------0--0-8-0-0--0-8-10-8-0-7-|
A  0--0-8-0-0--0-8-10-8-0-7--0--0-8-0-0---3-0-3b--0--0-8-0-0--0-8-10-8-0-7-|
E  0--0-8-0-0--0-8-10-8-0-7--0--0-8-0-0--0--------0--0-8-0-0--0-8-10-8-0-7-|

E  --------------|
B  --------------|
G  --------------|
D  ------------5-|
A  3-5-3-0-----5-|
E  --------3-0-5-|

Verse  (figure out strum pattern)
E  0----------------------|
B  3----------------------|
G  2-------------5------3-|
D  0------3------5------3-|
A  0------3------3------1-|
E  0------3---------------|

Pre Chorus
E  -------------------------------|
B  -----------5*------------------|
G  -------------------------------|
D  3----5--------8-0----3-5-0-3-5-|
A  3----5--------8-0----3-5-0-3-5-|
E  3----5--------8-0----3-5-0-3-5-|

Chorus
E  ----------------------|
B  ----------------------|
G  ------------5-----3---|
D  0-----3-----5-----3---| repeat
A  0-----3-----3-----1---|
E  0-----3---------------|

Post Chorus
E  -------------------------------------------------|
B  -------------------------------------------------|
G  -------------------------------------------------|
D  0--0-8-0-0--0-8-10-8-0-7--0--0-8-0-0-----------0-|
A  0--0-8-0-0--0-8-10-8-0-7--0--0-8-0-0---3-0-3b--0-|
E  0--0-8-0-0--0-8-10-8-0-7--0--0-8-0-0--0--------0-|

Play Verse

Play Pre Chorus

Play Chorus

Not sure about part after 2nd chorus.

Short Riff (starts at 2:37)
E  ---------|
B  ---------|
G  3-2---2--|  repeat 3x
D  ----0----|
A  ---------|
E  ---------|

Play Chorus 2x

Play Intro Part 2

End On
E  -------------------------------|
B  -------------------------------|
G  -------------------------------|
D  0------------------------------|
A  0------------------------------|
E  0------------------------------|
Tap to rate this tab
# A B C D E F G H I J K L M N O P Q R S T U V W X Y Z