Song name
# A B C D E F G H I J K L M N O P Q R S T U V W X Y Z

Daughtry - September tab

-------------------------------------------------------------------------------
			     
                               September-Daughtry
-------------------------------------------------------------------------------
Tabbed by:Kristen 
          used slow down software, tabbed by ear. 
          enjoy! NO CAPO

Tuning:Eb Ab Db Gb Bb Eb

VERSE 1: If u can't play intro, just use the chords.
 
   G#m       F#         E                 F#            E
e|----------------------------------------------------------------0---------|
B|------0----------0-------------0-----0----------0-------------0---0----0--|
G|-----------------------------3---3------------3----3----------------------|
D|---4----4-----4----4-------4-------4--------4---------------4--------4----|
A|--------------------------------------------------------------------------|
E|-4---------2----------0-----------------2--------------0------------------|

  G#m        F#        G#m             E
e|-----------------------------------------------0---------------0----------|
B|-----0----------0---------0-------0----------0---0---0---0---0---0---0----|
G|--------------------------------------------------------------------------|
D|---4--4------4----4-----4---4--------------4-------4-------4------4-------|
A|--------------------------------------------------------------------------|
E|-4---------2---------4---------4-----0------------------------------------|


CHORUS:

B   E  F#    E 
B   E  G#m  E
F#7(no pinky)   E


VERSE 2:
  G#m        F#          E                F#             E
e|----------------------------------------------------------------0---------|
B|------0----------0-------------0-----0----------0-------------0---0----0--|
G|-----------------------------3---3------------3----3----------------------|
D|---4----4-----4----4-------4-------4--------4---------------4--------4----|X2
A|--------------------------------------------------------------------------|
E|-4---------2----------0-----------------2--------------0------------------|

  G#M        F#        G#m             E
e|-----------------------------------------------0---------------0----------|
B|-----0----------0---------0-------0----------0---0---0---0---0---0---0----|
G|--------------------------------------------------------------------------|
D|---4--4------4----4-----4---4--------------4-------4-------4------4-------|
A|--------------------------------------------------------------------------|
E|-4---------2---------4---------4-----0------------------------------------|







   G#m       F#         E                 F#             E  
e|----------------------------------------------------------------0---------|
B|------0----------0-------------0-----0----------0-------------0---0----0--|
G|-----------------------------3---3------------3----3----------------------|
D|---4----4-----4----4-------4-------4--------4---------------4--------4----|
A|--------------------------------------------------------------------------|
E|-4---------2----------0-----------------2--------------0------------------|


  G#m        F#        G#m             E
e|-----------------------------------------------0---------------0----------|
B|-----0----------0---------0-------0----------0---0---0---0---0---0---0----|
G|--------------------------------------------------------------------------|
D|---4--4------4----4-----4---4--------------4-------4-------4------4-------|
A|--------------------------------------------------------------------------|
E|-4---------2---------4---------4-----0------------------------------------|


_____________________

CHORUS:

B   E  F#    E 
B   E  G#m  E
F#7(no pinky) E
___________________
BRIDGE:

B 16x  E 16x

B 16x  E
 16x

B E B E B E G#m  E
___________________
CHORUS:

B   E  F#    E 
B   E  G#m  E
F#7(no pinky) E

OUTRO: 
  G#m        F#         E                 F#              E
e|----------------------------------------------------------------0---------|
B|------0----------0-------------0-----0----------0-------------0---0----0--|
G|-----------------------------3---3------------3----3----------------------|
D|---4----4-----4----4-------4-------4--------4---------------4--------4----|
A|--------------------------------------------------------------------------|
E|-4---------2----------0-----------------2--------------0------------------|

   G#m       F#        G#m              E
e|-------------------------------------------
B|-----0----------0---------0-------0--------|
G|-------------------------------------------|
D|---4--4------4----4-----4---4--------------|
A|-------------------------------------------|
E|-4---------2---------4---------4-----0-----|
=================
Tap to rate this tab
# A B C D E F G H I J K L M N O P Q R S T U V W X Y Z