Song name
# A B C D E F G H I J K L M N O P Q R S T U V W X Y Z

Daughtry - September tab

Daughtry - September
Track #7 off of "Leave This Town"

SONGS CHORDS
    B   E   F#   G#m   B5   E5   G#5  B5
eb|-2---0---2-----x---------------------------|
Bb|-2---0---2-----4---------------------------|
Gb|-4---1---3-----4--------------------4------|
Db|-4---2---4-----6----4----2-----6----4------|
Ab|-2---2---4-----6----4----2-----6----2------|
Eb|-----0---2-----4----2----0-----4-----------|


INTRO/VERSE - 3X
PART 1
eb|-----------------------------------0------|
Bb|-----------------0--------0---------------|
Gb|---4-----4------4-4-4----4-4-----4---4-4--|
Db|--4-4---4-4----4---4----4-------4-----4---|
Ab|------------------------------------------|
Eb|4-----2------0---------2------0-----------|

PART 2
GUITAR 1
eb|------------------------0---------0-------|
Bb|------------------------------------------|
Gb|----4----4----4-------4--4-4---4---4-4----|
Db|---4-4--4-4--4-4--4--4-4--4---4-4---4-----|
Ab|------------------------------------------|
Eb|-4-----2----4----4--0--------0------------|

GUITAR 2 - (FILL)
eb|------------------------------------------|
Bb|------------------------------------------|
Gb|------------------------------------------|
Db|-------------8B(RB)P6---------------------|
Ab|-----------------------7------------------|
Eb|------------------------------------------|

PRECHORUS - ALL CHORDS
 B E F#  E
 B E G#M E
 FM E 

INTRO/VERSE - PART 1 - 1X
FULL INTRO VERSE - 2X

CHORUS
 B E F# E
 B E G#M E
 FM E

BRIDGE
PART 1
GUITAR 1 
eb|--------------------------------------------------|
Bb|--------------------------------------------------|
Gb|-444-333-444-333-6666-444-333-444-333-6666--------|
Db|--------------------------------------------------|
Ab|--------------------------------------------------|
Eb|--------------------------------------------------|

GUITAR 2
eb|--------------------------------------------------|
Bb|--------------------------------------------------|
Gb|--------------------------------------------------|
Db|-4--(PLAY VERY LIGHTLY OVER AND OVER W/SLIGHT PM--|
Ab|-2------------------------------------------------|
Eb|--------------------------------------------------|

BRIDGE
PART 2
    B5 (16X)  E5 (16X)  B5 (16X)  E5 (16X)  G#5 (16X)  E5 (16X)
eb|-------------------------------------------------------------|
Bb|-------------------------------------------------------------|
Gb|-4-------------------4---------------------------------------|
Db|-4---------2---------4---------2----------6----------2-------|
Ab|-2---------2---------2---------2----------6----------2-------|
Eb|-----------0-------------------0----------4----------0-------|

CHORUS
INTRO/VERSE - 1X
Tap to rate this tab
# A B C D E F G H I J K L M N O P Q R S T U V W X Y Z