Song name
# A B C D E F G H I J K L M N O P Q R S T U V W X Y Z

Daughtry - One Last Chance tab

(/) Slide Up  (\) Slide Down  (h) Hammer On  (p) Pull Off  (b) Bend (r) Release (v) Vibrato

E|--12b13v------------13--13/15--15--15--15--15\10--15\10---------13\10--13\10--|
B|------------13/15---------------------------------------13/15-----------------|
G|------------------------------------------------------------------------------|
D|------------------------------------------------------------------------------|
A|------------------------------------------------------------------------------|
E|------------------------------------------------------------------------------|

E|--15b17--17--17--15--15--13--13------13------15b17--17--17--15--15v--13--15-----|
B|---------------------------------15------15-------------------------------------|
G|--------------------------------------------------------------------------------|
D|--------------------------------------------------------------------------------|
A|--------------------------------------------------------------------------------|
E|--------------------------------------------------------------------------------|

E|--13--17r15--13---------------------------|
B|-----------------13b15v----15b17v----18v--|
G|------------------------------------------|
D|------------------------------------------|
A|------------------------------------------|
E|------------------------------------------|
Tap to rate this tab
 
# A B C D E F G H I J K L M N O P Q R S T U V W X Y Z