Guitaretab - guitar tabs
Song name
# A B C D E F G H I J K L M N O P Q R S T U V W X Y Z

Dave Barnes - Believe tab

Dave Barnes - Believe

Intro:                                                     G2
e---------------------------------|----------------------------|
b-1----1--3----3--5----5--3----3--|-1----1--3----3--5----5--3--|
D-----0-------0-------0-------0---|-----0-------0-------0---0--|
G---------------------------------|-------------------------0--|
A-3--3----3--3----3--3----3--3----|-3--3----3--3----3--3----2--|
E---------------------------------|-------------------------3--|

Verse:
e---------------------------------|
b-1----1--3----3--5----5--3----3--|
D-----0-------0-------0-------0---|
G---------------------------------|
A-3--3----3--3----3--3----3--3----|
E---------------------------------|
(1a) It's true what they say the devil's alive and well
(1b) He picked the lock and escaped the gates of hell
(2a) Chances are, four will turn to three
(2b) Thatís one less than this was meant to be

   G              F         G            F
e------------------1----------------------1--------|
b--0---5--3--1--0--1---------0---0--1--3--1--------|
D--0---------------2---------0------------2--------|
G------5--3--2--0--3-------------0--2--3--3--------|
A--2---------------3---------2------------3--------|
E--3---------------1---------3------------1--------|
(1c) Itís evidence for all you feel right now
(1d) If I could beg, Iíd beg that youíd somehow
(2c) A wounded heart is a sucker for a thrill
(2d) And healing now, I hope youíll somehow still
[ Tab from: http://www.guitaretab.com/d/dave-barnes/181392.html ]
Chorus 1:
   C    G   C   G   F7              C   G   C   G   F
e-----------------------------0-------------------------------1----|
b----1---1---1---1---1---1---1---1---1---1---1---1---1---1---1---1-|
D---0---0---0---0---2---2---2---2---0---0---0---0---2---2---2---2--|
G------------------------------------------------------------------|
A--3-------3-----------3-------3---3-------3-----------3-------3---|
E------3-------3---1-------1-----------3-------3---1-------1-------|
   Believe                        believe

Add on to chorus 2 & 3:
   Am G  F  C  F  C  G
e----------------------------------------------|
b--1--0--1--1--1--1--0-------------------------|
D--2--0--2--0--2--0--0-------------------------|
G--2-----3--2--3--2----------------------------|
A--0--2--3--3--3--3--2---0h2/3\2p0-------------|
E-----3--1-----1-----3-------------3-----------|
Belie-ee-ee-ee-ve...

    F                  C
The difference between now and then
    G           E7         Am/A /B /C
Has broken your heart like porcelain
        F                 C               G Am
Thereís hope in this that you will surely see
G2
If you only

**play verse tab through instrumental**

Verse 3:
e---------------------------------|
b-1----1--3----3--5----5--3----3--|
D-----0-------0-------0-------0---|
G---------------------------------|
A-3--3----3--3----3--3----3--3----|
E---------------------------------|
(3a) Itís true what they say the devilís alive and well
(3b) But thereís something else working here as well
(3c) Thereís something else working here as well

End on:      C
e---------------|
b------3-----1--|
D-----4-4----0--|
G----0---3---2--|
A---2-----2--3--|
E--3------------|

C/G 330010 (hold this pattern for ease during chorus for both C and G)
F7  133210 (play base with thumb)
F   133211
Am  x0221x
G   32000x
C   x3201x
G2  32003x

h = hammer
/ = slide up
\ = slide down
p = pull
x = mute or donít play string
Related for Believe tab