Song name
# A B C D E F G H I J K L M N O P Q R S T U V W X Y Z

Dave Barnes - Loving You Loving Me tab

Hey i'm Joe Huras.

Nobody has attempted to tab this so far except me so i did some dirty work
and figured out most of the song for everyone please correct anything thats
wrong like the part leading out of the chorus i just did what i could lol oh 
and this is my first tab i've submitted so enjoy :P

(CAPO ON THE FIRST FRET) 

KEY
h - hammer on
p - pull off
/ - slide
^ - bend
x - muted string

Main riff                         Solo Part

e|----5----5----3----------------------------------------------------------|
B|----5----5----3---5----------5-------------------------------------------|
G|----5----5----3---5h7---5/2--5h7---5------------------5------------------|
D|----5----5----3-----------------------7/5~-----3--5/7---7/5-3------------|
A|----8----7----5-----------------------------------------------5-3--------|
E|----5----5----3---------------------------------------------------5-0----|
        Solo Part ^^ (This also works)
e|--------------------------------------------------------------|
B|---------5----------5-----------------------------------------|
G|---------5h7---5/2--5h7---5------------------5----------------| 
D|-----------------------------7/5~-----3--5/7---7/5------------|
A|----------------------------------------------------8-5-------|
E|--------------------------------------------------------8-5-0-|

      Next Part                 (let ring)
e|----3---------0----3--------------0-------|
B|----2----2----0----2----2--------2--/4----|
G|----3----2----1----3----2-------2---------| 
D|----0----2----2----0----2------1----------|
A|---------0----2---------0-----2-----------|
E|--------------0---------------------------|

                Chorus
e|----5----5----3----------5-----------------|
B|----5----5----3----------5-----------------|
G|----5----5----3--(x3)----5-----------------| 
D|----5----5----3----------5-----------------|
A|----8----7----5----------7----8--8--8------|
E|----5----5----3----------5----5--7--8------|

(Listen to song for strumming pattern or whatever sounds right to you)

               Bridge 
e|----5----8---------------------|
B|----5----8---------------------|
G|----5----8---Repeat-(x)Times---|
D|----5----8---------------------|
A|----7----12--------------------|
E|----5----8---------------------|

Lyrics

Itís just me and you and the moonlight baby 
Iím staring at you staring at the stars tonight 
Someday felt so hard it disappeared and you and I can start this evening right 
What I say out loud is only whatever is in my head 
Tonight I would rather look at you instead 

I canít get enough of you, everything little thing you do 
You, the night, and this candlelight is all I really need 
Itís loving you loving me 

Dogs are barking in the yard a few feet away and TV in the den is on CNN 
Seemed to me these clouds were showing rain but nothing can change this mood Iím in 
What I say out loud is only whatever is in my head 
Tonight I'd rather look at you instead 
I canít get enough of you 
And every little thing you do 
You the night and this candlelight is all I really need 
Loving you loving me 

Iíve been all day waiting for you to come back home now I appreciate that will never be alone baby 
What I say out loud is only whatever is in my head 
Tonight id rather look at you instead 
And I canít get enough of you 
And every little thing you do 
(rpt.1) 
You the night and this candlelight is all i really need 
Loving you loving me 
Loving you loving me 
Loving you loving me 
Letís get together and start a family 
Loving you loving me baby 
Loving you loving me baby you know Iím never gonna go away 
Loving you oh loving me oh baby

Tap to rate this tab
# A B C D E F G H I J K L M N O P Q R S T U V W X Y Z