Song name
# A B C D E F G H I J K L M N O P Q R S T U V W X Y Z

Dave Barnes - Nothing Fancy tab

-------------------------------------------------------------------------------
		      NOTHING FANCY - Dave Barnes
-------------------------------------------------------------------------------
Tabbed by: Blosr
Email: Blosrboi@gmail.com

Tuning: Standard


e|----------------------------------------------------------------------|
B|----1-------------------1--------------------------1------------------|
G|----2------2/3-3/5p0----0-----2--------2/3-3/5p0---0------2-----------|
D|--3-------3----------2-----3---------3----------2------3--------------|
A|----------------------------------------------------------------------|
E|----------------------------------------------------------------------|

e|----------------------------------------------------------------------|
B|----1-------1---------3-------3----------1--------------1-------------|
G|----2---------2-------3-----3------------0------0-------0----------0--|x2
D|--3-------3-----------------------------------2---2------------0h2----|
A|--------------------1-----1-----1------3--------------3---------------|
E|----------------------------------------------------------------------|

e|------------------------------------------------0---------------------|
B|----1-------1---------3-------3----------1------1-------1-------------|
G|----2---------2-------3-----3------------0--------0-----0----------0--|
D|--3-------3-----------------------------------2----------------0h2----|
A|--------------------1-----1-----1------3--------------3---------------|
E|----------------------------------------------------------------------|
        *(pick with left hand when you pull off)
e|-------------------------*3p1p0---------------------------------------|
B|------4-------4-----------1------------1----------------1-------------|
G|------3---------3---------0------------2----2/3-3/5p0---0----2--------|
D|--1---------1------------------------3-----3----------2----3----------|
A|----------------------------------------------------------------------|
E|----------------------------------------------------------------------|

e|----------------------------------------------------------------------|
B|----1-------1---------3-------3----------1--------------1-------------|
G|----2---------2-------3-----3------------0------0-------0----------0--|x2
D|--3-------3-----------------------------------2---2------------0h2----|
A|--------------------1-----1-----1------3--------------3---------------|
E|----------------------------------------------------------------------|

e|------------------------------------------------0---------------------|
B|----1-------1---------3-------3----------1------1-------1-------------|
G|----2---------2-------3-----3------------0--------0-----0----------0--|
D|--3-------3-----------------------------------2----------------0h2----|
A|--------------------1-----1-----1------3--------------3---------------|
E|----------------------------------------------------------------------|
(Pick really hard)          
e|-------------------*3p1p0---|-----------------------------------------|
B|---4----------------1-------|--------1--------------1------1------1---|
G|---3----------------0-------|------2---2---2--------2------2------2---|
D|---1------------------------|---3--------3---3----3------2------0-----|
A|----------------------------|-----------------------------------------|
E|----------------------------|-----------------------------------------|

e|-----------------------------------------1----------------------------|
B|-------1----------------3----------------1-----------------1----1-----|
G|-----2---2---2----------3--------------2---2---2------2----2----2-----|x2
D|---0-------0----------3---3---3------3-------3---3--3----3----2-------|
A|-------------------1--------1-----------------------------------------|
E|----------------------------------------------------------------------|

e|----------------------------------------------------------------------|
B|-------1----------------3----------------1------1------1--------------|
G|-----2---2---2----------3---------------2------2------2---------------|
D|---0-------0----------3---3---3------3------2------0------------------|
A|-------------------1--------1-----------------------------------------|
E|----------------------------------------------------------------------|

e|----------------------------------------------------------------------|
B|-------3---------------3------------------1---------------------------|
G|-------3--3---3--------3--3---3-----------0--0---0-------0-----0------|
D|-----3------3-------3-------3----------2-------2-------2---0h2--------|
A|--1--------------1-------------------3---------------3----------------|
E|----------------------------------------------------------------------|

e|----------------------------------------------------------------------|
B|------1---------------------------------------------------------------|
G|------2--2/3-3/5---5--3--2--0----0------0---------0--------0----------|x3
D|---3---------------6-------------2----2---2-------2----0h2------------|
A|------------------------------3----------------3----------------------|
E|----------------------------------------------------------------------|

e|-------------------------*3p1p0---------------------------------------|
B|------4-------4-----------1------------1----------------1-------------|
G|------3---------3---------0------------2----2/3-3/5p0---0----2--------|
D|--1---------1------------------------3-----3----------2----3----------|
A|----------------------------------------------------------------------|
E|----------------------------------------------------------------------|

e|----------------------------------------------------------------------|
B|----1-------1---------3-------3----------1--------------1-------------|
G|----2---------2-------3-----3------------0------0-------0----------0--|x2
D|--3-------3-----------------------------------2---2------------0h2----|
A|--------------------1-----1-----1------3--------------3---------------|
E|----------------------------------------------------------------------|

e|------------------------3p1p0----1------------------------------------|
B|----------4---------1---1---------------------------------------------|
G|------3---------------------------------------------------------------|
D|--1----------1--3----------------3------------------------------------|
A|----------------------------------------------------------------------|
E|----------------------------------------------------------------------|

| /  slide up
| \  slide down
| h  hammer-on
| p  pull-off
| ~  vibrato
| +  harmonic
| x  Mute note
===============================================================================
Tap to rate this tab
 
# A B C D E F G H I J K L M N O P Q R S T U V W X Y Z