Guitaretab - guitar tabs
Song name
# A B C D E F G H I J K L M N O P Q R S T U V W X Y Z

Dave Barnes - Crazyboutya tab

Tuning: Standard

 

Chords Used
    E7  Baug5   B6  A7  B7 
e|---------------------------------------------------------------------------|
B|-(5)----0-----0------------------------------------------------------------|
G|--7-----0-----x---6---8----------------------------------------------------|
D|--6-----5-----6---5---7----------------------------------------------------|
A|--7-----6-----x---x---x----------------------------------------------------|
E|--------7-----7---5---7----------------------------------------------------|


Intro Lick
e|--7-7-9-7--------7-7-9-7--------7-7-9-7------------------------------------|
B|----------9-7------------7-7/9----------9-7-----10p9h10-10p9-10/12---------|
G|--------------7-----------------------------9------------------------------|
D|---------------------------------------------------------------------------|
A|---------------------------------------------------------------------------|
E|---------------------------------------------------------------------------|

Other intro lick beind the main one
e|-/10-9------------------------------/10-9----------------------------------|
B|-------12-10-12---------------------------12-10-12-------------------------|
G|----------------12-9----------11-------------------12/14-------------------|
D|---------------------12-12-12----12----------------------------------------|
A|---------------------------------------------------------------------------|
E|---------------------------------------------------------------------------|
 
[ Tab from: http://www.guitaretab.com/d/dave-barnes/58411.html ]
E7                Baug5   B6      E7      Baug5 B6
You donít have to tell me, girl I know it
    E7             Baug5 B6       E7   Baug5 B6
And hallelujah is coming out my mouth
       E7                 Baug5 B6      E7       Baug5 B6
Cause youíre my girl and girl I donít deserve you
     E7               Baug5   B6       E7   Baug5 B6
But deserving love is not what youíre about
A7                                         
Iím gonna tell the whole wide world about you
B7
Tell them how much you mean to me
 

                   E7   Baug5
Iím crazy bout ya, baby
    B6           E7     Baug5
And I just canít help it
           B6       E7
Some might call me selfish
  Baug5   B6      A7   B7   
I need you by my side
                   E7  Baug5
Iím crazy bout ya, baby
          B6     E7   Baug5
And thereís no denying
      B6      E7   Baug5
No use even trying
           B6     A7   B7
I need you by my side, need you by my side


E7  Baug5  B6  E7  Baug5  B6  E7  Baug5  B6  A7  B7

 
         E7            Baug5   B6     E7    Baug5 B6
All the girls in the papers and the movies
          E7          Baug5  B6  E7      Baug5 B6
And the covers of the dirty magazines
     E7              Baug5   B6     E7      Baug5 B6
Got nothing on your beauty, pretty baby
        E7         Baug5    B6         E7      Baug5 B6
Youíre everything they wish they could be
A7
Iím gonna tell the whole wide world about you
B7
Tell them how much you mean to me

                   E7   Baug5
Iím crazy bout ya, baby
    B6           E7     Baug5
And I just canít help it
           B6       E7
Some might call me selfish
  Baug5   B6      A7   B7   
I need you by my side
                   E7  Baug5
Iím crazy bout ya, baby
          B6     E7   Baug5
And thereís no denying
      B6      E7   Baug5
No use even trying
           B6     A7   B7
I need you by my side, need you by my side

 

Instrumental Bridge chord progression:

   E7 Eb7 D7  Db7      F#7 B7
e|---------------------------------------------------------------------------|
B|---------------------------------------------------------------------------|
G|--7--6---5---4--------3---2------------------------------------------------|
D|--6--5---4---3---x3---2---1------------------------------------------------|
A|--7--6---5---4-------------------------------------------------------------|
E|----------------------2---2------------------------------------------------|
Related for Crazyboutya tab