Guitaretab - guitar tabs
Song name
# A B C D E F G H I J K L M N O P Q R S T U V W X Y Z

Dave Barnes - Graces Amazing Hands tab

-------------------------------------------------------------------------------
                      Grace's Amazing Hands - Dave Barnes
-------------------------------------------------------------------------------

Tabbed by: Chris Case
Email: chris@northsouthband.com
Website: www.northsouthband.com
Album: Brother, Bring the Sun

Tuning: STANDARD
Capo 4
x = Slap

    Am   Em   D/F#           Am    Em   D/F#     C2 C   C2
e|-----x---------------------------------------------------|
B|---1-x-0-----3----------0-0h1---0-----3-----------------|
G|---2-x-0-----2------0---0--0h2---0-----2p0------0--------|
D|-----x------------0-0h2p0-------------------0---0h2--2p0-|
A|--0--x---------0h2---------0------------------3-3----3---|
E|-----x-0-----2-------------------0-----2-----------------|

Some verss start with this hammer on
    Am 
e|------|
B|--0h1-|
G|--2---|
D|------|
A|--0---|
E|------|

Am       Em          D/F#
Grace's amazing hands, they hold me
Am         Em                D/F#  C
They're as soft as a feather bed
Am          Em          D/F#
They would never strike or scold me
               Am        Em    D/F#  C
They know the words that work instead

    G   F  C  Bb   C
e|--3-------------------------------------------------------------------------|
B|--3---2--1------------------------------------------------------------------|
G|------3--0---3---0----0-----------------------------------------------------|
D|-------------3---2p0--------------------------------------------------------|
A|---------3---1---3--3-------------------------------------------------------|
E|--3---1---------------------------------------------------------------------|
[ Tab from: http://www.guitaretab.com/d/dave-barnes/58412.html ]
G           F                  C          Bb C       
I always thought that love was frightening
G          F                     C    Bb  C
I always thought it would be so rough
G             F               C    Bb C
But love has sent me down an angel
 G                  F   C  Bb              Am (into intro chords)
And I knew it was grace, just by her touch
 
Grace's amazing hands, they're ugly
They are bruised by the blows that I have blown
She knows well I don't deserve her
But she laughs and says, "that's the way love goes" 

    E F#m  G#m  Am
e|-----------------------------------------------------------------------|
B|-----------------------------------------------------------------------|
G|--1---2---4---5--------------------------------------------------------|
D|--2---2---4---5--------------------------------------------------------|
A|--2--------------------------------------------------------------------|
E|--0---2---4---5--------------------------------------------------------|

E   F#m G#m Am    C
What did I do?
           G  D/F#
What did I say? 
E    F#m G#m  Am              C                       D
For love to shine down on me, and show me amazing grace?

Solo (still needs work... this is the rough idea)
e|-----------------------------------------------------------|
B|-----------------------------------------------------------|
G|--2/4-\-0--2/4-2/4-0---0-0---0-2-2/4--0---0-2-2/4-------0--|
D|---------------------2-----2------------2---------2-2-0----|
A|-----------------------------------------------------------|
E|-----------------------------------------------------------|
 
e|-----------------------------------------------------------|
B|-----------------1/3------------3/5-3-3-0-0-----0----------|
G|--4/5-4-4--0-0-------4-4--0-0---------------2-2------------|
D|---------------2--------------2-------------------0-0h2----|
A|-----------------------------------------------------------|
E|-----------------------------------------------------------|
 
| /  slide up
| \  slide down
| h  hammer-on
| p  pull-off
| ~  vibrato
| ^  Slap
| +  harmonic
| x  Mute note
===============================================================================
Related for Graces Amazing Hands tab