Guitaretab - guitar tabs
Song name
# A B C D E F G H I J K L M N O P Q R S T U V W X Y Z

Dave Barnes - Your Love Will Never Change tab

----------------------------------------------------------------------------

Your Love Will Never Change - Dave Barnes

----------------------------------------------------------------------------

Tuning: STANDARD (CAPO 1)

 INTRO/VERSE CHORDS

     G                Gmaj7          Fsus2           C          Dsus4w3
e|--------------------------------------------------------------------------|
B|---3--3-------------3--3-----------1--1-----------------------------------|
G|-----0---0---0---0---------------------------------0--0--0-------0-----0--|
D|----------------------4---4---4--4---3---3---3---3---2-----2/4-----4------|
A|---------------------------------------------------3---3-------5-----5----|
E|---3---3---3---3----3---3---3--3---3---3---3---3--------------------------|

               "You're love will never change..."

e|--------------------------------------------------------------------------|
B|--------------------------------------------------------------------------|
G|-------0---0------0---0----REPEAT THIS------------------------------------|
D|---2-----2--2/4-----4-----------------------------------------------------|
A|-3---3----------5---------------------------------------------------------|
E|--------------------------------------------------------------------------|

[ Tab from: http://www.guitaretab.com/d/dave-barnes/91795.html ]
G                                        Gmaj7
They tell me thereís songs reserved for angels
                        Fsus2
Would you sing me one, a stranger
                     C    Dsus4w3
Just to prove your love?
       G                             Gmaj7
They tell me youíve given poor men kingdoms
                   Fsus2
And handed guilty freedom
                    C
And taken on their stains
D                         C
And your love will never change
D                      G
Your love will never change


They tell me that you dwell with good and evil
In alleys and cathedrals
Shadows and the light
They tell me that you hold the world together
Not from guilt, but pleasure
And you somehow know my name
And your love will never change
Your love will never change


Interlude at 1:30 into song

   F2                G                F2               G

e|--------------------------------------------------------------------------|
B|-1---1---------1---0--0-------------1--1---------1---0--0-----------------|
G|---0-----0---0---0---0----0---0---0---0----0---0---0---0----0---0---0-----|
D|--------------------------------------------------------------------------|
A|--------------------------------------------------------------------------|
E|-1-----1---1---1---3----3---3---3---1----1---1---1---3----3---3---3-------|

   Bb         Am         C          G           D
e|--------------------------------------------------------------------------|
B|-3---3---3--1---1---1--1---1---3--0---0-0-1-3-3--3------------------------|
G|---3----------2----------0----------0-----------2----2---2----------------|
D|----------------------------------------------0----0---0---0--------------|
A|-1-----1----0-----0----3----3---------------------------------------------|
E|----------------------------------3-----3---------------------------------|

So tell me thereís nothing that you canít do
And youíll love me though Iíve hurt you
And that youíll take my blame
And your love will never change
Your love will never change
Related for Your Love Will Never Change tab