Dave Brockie Experience - I Wanna Be A Squirrel tab

The other tab is good, but here's the song actually
tabbed out, without chords.

All strings tuned half-step down.

INTRO
|-------------------|
|-------------------|
|--9-9-9-9-7-6------|
|--------------9-7--|
|-------------------|
|-------------------|

|Lead
|---------------------------------------------------|
|------------------7h9----7-7-9-10-9-7-7---7~-------|
|----6-6---6-9-9-9-----9~----------------9----9-6~--|
|--7-----7------------------------------------------|
|---------------------------------------------------|
|---------------------------------------------------|
|
|Rhythm
|--------------------------------------------------------------------------|
|--------------------------------------------------------------------------|
|---------------------9--9-9-9--9--9-9-9-11--11-11-11-9--9-9-9-7--7-7-7-6--|
|--7--7-7-7--7--7-7-7-9--9-9-9--9--9-9-9-11--11-11-11-9--9-9-9-7--7-7-7-6--|
|--7--7-7-7--7--7-7-7-7--7-7-7--7--7-7-7--9---9--9--9-7--7-7-7-5--5-5-5-4--|
|--5--5-5-5--5--5-5-5------------------------------------------------------|


|Lead
|-------------------------------------------------------|
|------------------------------7h9---7------------------|
|--9-9-9-9-7-6-----6-6---6-9-9-----9---9-7~-9-6~-7~-9\--|
|--------------7-7-----7--------------------------------|
|-------------------------------------------------------|
|-------------------------------------------------------|
|
|Rhythm
|----------------------------------------------------------------------|
|----------------------------------------------------------------------|
|---------------------9--9-9-9--9--9-9-9-7--7-7-7-6--6-6-6-7--7-7-7-9--|
|--7--7-7-7--7--7-7-7-9--9-9-9--9--9-9-9-7--7-7-7-6--6-6-6-7--7-7-7-9--|
|--7--7-7-7--7--7-7-7-7--7-7-7--7--7-7-7-5--5-5-5-4--4-4-4-5--5-5-5-7--|
|--5--5-5-5--5--5-5-5--------------------------------------------------|

VERSE
|--------------------------------------------------------------------------|
|--------------------------------------------------------------------------|
|---------------------9--9-9-9--9--9-9-9-11--11-11-11-9--9-9-9-7--7-7-7-6--|
|--7--7-7-7--7--7-7-7-9--9-9-9--9--9-9-9-11--11-11-11-9--9-9-9-7--7-7-7-6--|
|--7--7-7-7--7--7-7-7-7--7-7-7--7--7-7-7--9---9--9--9-7--7-7-7-5--5-5-5-4--|
|--5--5-5-5--5--5-5-5------------------------------------------------------|

|----------------------------------------------------------------------|
|----------------------------------------------------------------------|
|---------------------9--9-9-9--9--9-9-9-7--7-7-7-6--6-6-6-7--7-7-7-9--|
|--7--7-7-7--7--7-7-7-9--9-9-9--9--9-9-9-7--7-7-7-6--6-6-6-7--7-7-7-9--|
|--7--7-7-7--7--7-7-7-7--7-7-7--7--7-7-7-5--5-5-5-4--4-4-4-5--5-5-5-7--|
|--5--5-5-5--5--5-5-5--------------------------------------------------|

CHORUS
|-----------------------------------|
|-----------------------------------|
|--11--9--7--9----------------------|
|--11--9--7--9--7--7-7-7--7--7-7-7--|
|---9--7--5--7--7--7-7-7--7--7-7-7--|
|---------------5--5-5-5--5--5-5-5--|

|-----------------------------------|
|-----------------------------------|
|--11--9--7--6--9--9-9-9--9--9-9-9--|
|--11--9--7--6--9--9-9-9--9--9-9-9--|
|---9--7--5--4--7--7-7-7--7--7-7-7--|
|-----------------------------------| x2

|Lead
|------------------------------------|
|------------------------------------|
|-9-9-9-9-9-9-9-9-9-9-9-9-9-7-6------|
|-------------------------------9-7--|
|------------------------------------|
|------------------------------------|
|
|Rhythm
|---------------------------|
|---------------------------|
|--9-9-9-9-9-9-9-9-9-9-9-9--|
|--9-9-9-9-9-9-9-9-9-9-9-9--|
|--7-7-7-7-7-7-7-7-7-7-7-7--|
|---------------------------|

INTERLUDE
|------------------------------------------------|
|----------------7h9-----7-7-9-10-9-7---7~-------|
|----6-6---6-9-9-----9~---------------9-----9-6--|
|--7-----7---------------------------------------|
|------------------------------------------------|
|------------------------------------------------|

|---------------------------------------------------------|
|----------------------7h9---7-9-10--9-10-12--10-12-14~~--|
|--6-------6-6---6-9-9-----9------------------------------|
|----9-7-7-----7------------------------------------------|
|---------------------------------------------------------|
|---------------------------------------------------------|

Repeat VERSE
Repeat CHORUS

ENDING
|Lead
|-----------------------------------------------------|
|-----------------------------------------------------|
|--9-7-6-7-9---9-7-6-7-9---9-7-6---9-7-6---9-7-6------|
|--------------------------------9-------9-------9-7--|
|-----------------------------------------------------|
|-----------------------------------------------------|
|
|Rhythm
|-------------------------------------------------------------|
|-------------------------------------------------------------|
|--9-9-9-9-9-9-9-9-9-9-9-9-9-9-9-9-9-7-6---9-7-6---9-7-6------|
|--9-9-9-9-9-9-9-9-9-9-9-9-9-9-9-9-------9-------9-------9-7--|
|--7-7-7-7-7-7-7-7-7-7-7-7-7-7-7-7----------------------------|
|-------------------------------------------------------------|


Legend
=======
h   | Hammer-On
~   | Hold Note/Vibrato


That's it. A great song by DBX. Feedback is welcomed.

-DH
=========================================================
Tap to rate this tab
 
# A B C D E F G H I J K L M N O P Q R S T U V W X Y Z