Song name
# A B C D E F G H I J K L M N O P Q R S T U V W X Y Z

Dave Brockie Experience - Servant Of Deaths Head tab

A great Nazi-related song by DBX. Dave is a WWII buff, so
there's plenty of Nazi songs by GWAR and DBX...

All strings tuned half-step down.


INTRO
|-----------------------------------|
|-----------------------------------|
|-----------------------------------|
|-----------------------------------|
|--0-0-5-0-0-3-0-2-0-0-5-0-0-3-0-2--|
|-----------------------------------| x4


VERSE
|------------------|
|------------------|
|------------------|
|------------------| (Just play the note as
|--00000000000000--|  much as you can and
|------------------|  as fast as you can)


CHORUS
|--------------------------------------------------|
|--------------------------------------------------|
|----------7-7---------8-7---------7-7-------------|
|----------7-7---------8-7---------7-7-------------|
|--0000000-5-5-0000000-6-5-0000000-5-5-0000000000--|
|--------------------------------------------------| x4


Repeat    INTRO
          VERSE
          CHORUS


OUTRO
|-------------------------|
|-------------------------|
|----------------------2--|
|----------------------2--|
|--0-0-5-0-0-3-0-2-0-2-0--|
|-------------------------|



There it is. A quick little Nazi song. It's not very
memorable, but still a great song. Feedback is
welcomed...

-- DH
======================================================
Tap to rate this tab
 
# A B C D E F G H I J K L M N O P Q R S T U V W X Y Z