Song name
# A B C D E F G H I J K L M N O P Q R S T U V W X Y Z

Dave Brockie Experience - Music Is Like Beer tab

INTRO
|Lead
|---------------------------------------------|
|---------------------------------------------|
|------------------------6-6--6-6--6-6-6-7-6--|
|--7-7--7-7--7-7-7-9-7------------------------|
|---------------------------------------------|
|---------------------------------------------|
|
|Rhythm
|---------------------------------------------|
|---------------------------------------------|
|---------------------------------------------|
|---------------------------------------------|
|---------------------------------------------|
|--5-5--5-5--5-5-5-7-5---5-5--5-5--5-5-5-7-5--|

|Lead
|------------------------5-5--5-5--5-5-5-7-5--|
|--5-5--5-5--5-5-5-7-5------------------------|
|---------------------------------------------|
|---------------------------------------------|
|---------------------------------------------|
|---------------------------------------------|
|
|Rhythm
|---------------------------------------------|
|---------------------------------------------|
|---------------------------------------------|
|---------------------------------------------|
|---------------------------------------------|
|--5-5--5-5--5-5-5-7-5---5-5--5-5--5-5-5-7-5--|


VERSE
|---------------------------------------|
|---------------------------------------|
|------9-9-----7-7-----9-9-11-11-11-11--|
|--7-7-9-9-7-7-7-7-7-7-9-9-11-11-11-11--|
|--7-7-7-7-7-7-5-5-7-7-7-7--9--9--9--9--|
|--5-5-----5-5-----5-5------------------|


CHORUS
|--------------------------------------------|
|--------------------------------------------|
|--------------------------------------9b~~--|
|--7-7-7-9-7---7-7-7-9-7---7-7-7-9-7---------|
|--------------------------------------------|
|--------------------------------------------|

INTERLUDE
|Lead
|--------------------------------------|
|--------------------------------------|
|--7---7---6---6---0-6bp4---4-6-4---4--|
|----7---7---7---7--------6-------6----|
|--------------------------------------|
|--------------------------------------|
|
|Rhythm
|----------------------------------------------------------------|
|----------------------------------------------------------------|
|--7--7-7-7-7-7-7-6--6-6-6-6-6-6-4--4-4-4-4-4-4-4-4-4-4-4-4-4-4--|
|--7--7-7-7-7-7-7-6--6-6-6-6-6-6-4--4-4-4-4-4-4-4-4-4-4-4-4-4-4--|
|--5--5-5-5-5-5-5-4--4-4-4-4-4-4-2--2-2-2-2-2-2-2-2-2-2-2-2-2-2--|
|----------------------------------------------------------------|

|Lead
|--------------------------------------|
|--------------------------------------|
|--7---7---6---6----/9~~~---9-9-7-6----|
|----7---7---7---7------------------9--|
|--------------------------------------|
|--------------------------------------|
|
|Rhythm
|--------------------------------------------------|
|--------------------------------------------------|
|--7--7-7-7-7-7-7-6--6-6-6-6-6-6-9~~~--------------|
|--7--7-7-7-7-7-7-6--6-6-6-6-6-6-9~~~--------------|
|--5--5-5-5-5-5-5-4--4-4-4-4-4-4-7~~~---7-7-5-4----|
|-----------------------------------------------7--|


Repeat     INTRO


ENDING
|Lead
|--------------------------------------|
|--10---10---10---10---10---10---10~~--|
|-----9----9----9----9----9----9-------|
|--------------------------------------|
|--------------------------------------|
|--------------------------------------|
|
|Rhythm
|-------------------------------|
|-------------------------------|
|-------------------------------|
|-------------------------------|
|-------------------------------|
|--6-0-6-0-6-0-6-0-6-0-6-0-6~~--|



Legend 
======== 
b    | Bend Note
~    | Hold Note
p    | Pull-Off
/    | Slide Up



Feedback and requests (DBX/GWAR/X-Cops/Death Piggy tabs only) are welcomed.

--DH
====================================================
Tap to rate this tab
# A B C D E F G H I J K L M N O P Q R S T U V W X Y Z