Song name
# A B C D E F G H I J K L M N O P Q R S T U V W X Y Z

Dave Brockie Experience - Damn That Money tab

All strings tuned half-step down.



INTRO
|--------------------------------------------|
|--------------------------------------------|
|--7-4--4-4-4--4-4-4-4--7-4--4-4-4--4-4-4-4--|
|--7-4--4-4-4--4-4-4-4--7-4--4-4-4--4-4-4-4--|
|--5-2--2-2-2--2-2-2-2--5-2--2-2-2--2-2-2-2--|
|--------------------------------------------|

|-----------------------------------------------------------|
|-----------------------------------------------------------|
|--7-4--4-4-4-----------------7--7-7--7-7-7--7--7-7--7-7-7--|
|--7-4--4-4-4--5--5-5--5-5-5--7--7-7--7-7-7--7--7-7--7-7-7--|
|--5-2--2-2-2--5--5-5--5-5-5--5--5-5--5-5-5--5--5-5--5-5-5--|
|--------------3--3-3--3-3-3--------------------------------| x2


VERSE
|------------------------------------|
|------------------------------------|
|---------------4-----------------4--|
|---------------4-----------------4--|
|--5-2-0h2--2-2-2--5-2-0h2--2-2-2-2--|
|------------------------------------|

|----------------------------------------------------|
|----------------------------------------------------|
|-----------------------7--7-7--7-7-7-7--7-7--7-7-7--|
|-----------------------7--7-7--7-7-7-7--7-7--7-7-7--|
|-5-2-0h2---------------5--5-5--5-5-5-5--5-5--5-5-5--|
|---------3--3-3--3-3-3------------------------------| x2


CHORUS ("Pleeeeeaaaassssee...")
|-------------------------------------------------------------|
|-------------------------------------------------------------|
|--4--4-4--4-4-4-4--4-4--4-4-4-4--4-4--4-4-4-4--4-4--4-4-4-4--|
|--4--4-4--4-4-4-4--4-4--4-4-4-4--4-4--4-4-4-4--4-4--4-4-4-4--|
|--2--2-2--2-2-2-2--2-2--2-2-2-2--2-2--2-2-2-2--2-2--2-2-2-2--|
|-------------------------------------------------------------|

|-------------------------|
|-------------------------|
|-------------------------|
|--5-5----5-5----5-5------|
|--5-5----5-5----5-5------|
|--3-3----3-3----3-3------|

|-------------------------------------------------------------|
|-------------------------------------------------------------|
|--4--4-4--4-4-4-4--4-4--4-4-4-4--4-4--4-4-4-4--4-4--4-4-4-4--|
|--4--4-4--4-4-4-4--4-4--4-4-4-4--4-4--4-4-4-4--4-4--4-4-4-4--|
|--2--2-2--2-2-2-2--2-2--2-2-2-2--2-2--2-2-2-2--2-2--2-2-2-2--|
|-------------------------------------------------------------|

|---------------------------------------|
|---------------------------------------|
|--7--7-7--7-7-7-7--7-7--7-7-7-7--------|
|--7--7-7--7-7-7-7--7-7--7-7-7-7--------|
|--5--5-5--5-5-5-5--5-5--5-5-5-5--------|
|---------------------------------------|


Repeat     INTRO (Once)
           VERSE
           CHORUS


SOLO (Rhythm plays Intro)
|Lead
|-------------------------------|
|--7b~~---7b~~---7b~~---10b~~~--|
|--9b~~---9b~~---9b~~---12b~~~--|
|-------------------------------|
|-------------------------------|
|-------------------------------|

|-----------------------------------------------------------|
|---------------------------------------------------10b~~~--|
|--9bp7---*7~---7--9bp7---*7~---7--9bp7---*7~---7---12b~~~--|
|-------9-----9---------9-----9---------9-----9-------------|
|-----------------------------------------------------------|
|-----------------------------------------------------------|


FINAL VERSE
|------------------------------------|
|------------------------------------|
|---------------4-----------------4--|
|---------------4-----------------4--|
|--5-2-0h2--2-2-2--5-2-0h2--2-2-2-2--|
|------------------------------------|

|----------------------------------------------------|
|----------------------------------------------------|
|-----------------------7--7-7--7-7-7-7--7-7--7-7-7--|
|-----------------------7--7-7--7-7-7-7--7-7--7-7-7--|
|-5-2-0h2---------------5--5-5--5-5-5-5--5-5--5-5-5--|
|---------3--3-3--3-3-3------------------------------|

|------------------------------------|
|------------------------------------|
|---------------4-----------------4--|
|---------------4-----------------4--|
|--5-2-0h2--2-2-2--5-2-0h2--2-2-2-2--|
|------------------------------------|

|----------------------------------------------------------------|
|----------------------------------------------------------------|
|-----------------------7--7-7--7-7-7-7--7-7--7-7-7-7--7--7--7\--|
|-----------------------7--7-7--7-7-7-7--7-7--7-7-7-7--7--7--7\--|
|-5-2-0h2---------------5--5-5--5-5-5-5--5-5--5-5-5-5--5--5--5\--|
|---------3--3-3--3-3-3------------------------------------------|




Legend 
======== 
h    | Hammer-On
b    | Bend Note
~    | Hold Note
p    | Pull-Off 
*    | Pinch Harmonic



Feedback and requests (DBX/GWAR/X-Cops/Death Piggy tabs only) are welcomed.

--DH
====================================================
Tap to rate this tab
# A B C D E F G H I J K L M N O P Q R S T U V W X Y Z