Song name
# A B C D E F G H I J K L M N O P Q R S T U V W X Y Z

Dave Brockie Experience - Pants tab

All strings tuned half-step down.


INTRO
|-------------------------------------|
|-------------------------------------|
|--12-0-11-0-9-0----7--7-9-----9--11--|
|----------------10--------10---------|
|-------------------------------------|
|-------------------------------------| x4


(Play nothing during the first verse.)


CHORUS
|-------------------------------------------|
|-------------------------------------------|
|--12--12-12-12-12-12-12--7-7-7-9/10-10-10--|
|--12--12-12-12-12-12-12--7-7-7-9/10-10-10--|
|--10--10-10-10-10-10-10--5-5-5-7/-8--8--8--|
|-------------------------------------------| x4


SECOND VERSE
|---------------------------------------|
|---------------------------------------|
|--12-0-11-0-9-0----7--7-9-----9p0--11--|
|----------------10--------10-----------|
|---------------------------------------|
|---------------------------------------| x3

|-----------------------------------|
|-----------------------------------|
|--12-0-11-0-9-0----7--7-9-----9p0--|
|----------------10--------10-------|
|-----------------------------------|
|-----------------------------------|


CHORUS
|-------------------------------------------|
|-------------------------------------------|
|--12--12-12-12-12-12-12--7-7-7-9/10-10-10--|
|--12--12-12-12-12-12-12--7-7-7-9/10-10-10--|
|--10--10-10-10-10-10-10--5-5-5-7/-8--8--8--|
|-------------------------------------------| x4

|Rhythm
|-------------------------------------------|
|-------------------------------------------|
|--12--12-12-12-12-12-12--7-7-7-9/10-10-10--|
|--12--12-12-12-12-12-12--7-7-7-9/10-10-10--|
|--10--10-10-10-10-10-10--5-5-5-7/-8--8--8--|
|-------------------------------------------| x3
|
|Lead
|---------------------------------|
|---------------------------------|
|------------------7-7-7----------|
|--5--5-5-5-5-5-5--7-7-7---3-3-3--|
|--5--5-5-5-5-5-5--5-5-5---3-3-3--|
|--3--3-3-3-3-3-3--------0h1-1-1--| x3


ENDING
|Rhythm
|-------------------------|
|-------------------------|
|--12--12-12-12-12-12-12--|
|--12--12-12-12-12-12-12--|
|--10--10-10-10-10-10-10--|
|-------------------------|
|
|Lead
|------------------|
|------------------|
|------------------|
|--5--5-5-5-5-5-5--|
|--5--5-5-5-5-5-5--|
|--3--3-3-3-3-3-3--|



Legend 
======== 
/    | Slide Up
p    | Pull-Off
h    | Hammer-On



Feedback and requests (DBX/GWAR/X-Cops/Death Piggy tabs only) are welcomed.

--DH
====================================================

Tap to rate this tab
# A B C D E F G H I J K L M N O P Q R S T U V W X Y Z