Song name
# A B C D E F G H I J K L M N O P Q R S T U V W X Y Z

Dave Brockie Experience - I Clean Up Real Good tab


All strings tuned helf-step down.



INTRO
|-------------------------------|
|-------------------------------|
|--9-x-x-9-x-9-x-9-x-x-9-x-9-9--|
|--9-x-x-9-x-9-x-9-x-x-9-x-9-9--|
|--7-x-x-7-x-7-x-7-x-x-7-x-7-7--|
|-------------------------------| x4
PM   . .   .   .   . .   .
     ^ ^   ^   ^   ^ ^   ^
    (These are combinations of 
     muted and palm-muted chords.)


PRE-VERSE ("Solo")
|----------------|
|--12b~~~--------|
|--14b~~~--------|
|----------------|
|----------------|
|----------------|
   ^^
  (Just play that a few 
   times until the verse.)


VERSE
|-------------------------------------------------------------------|
|-------------------------------------------------------------------|
|--9-9-9-9-9-9-9-9-7-7-7-7-6-6-6-6----------------------------------|
|--9-9-9-9-9-9-9-9-7-7-7-7-6-6-6-6-7-7-7-7-7-7-7-7-5-5-5-5-4-4-4-4--|
|--7-7-7-7-7-7-7-7-5-5-5-5-4-4-4-4-7-7-7-7-7-7-7-7-5-5-5-5-4-4-4-4--|
|----------------------------------5-5-5-5-5-5-5-5-3-3-3-3-2-2-2-2--| x2

|--------------------------|
|--------------------------|
|--9-----------------------|
|--9-----------------------|
|--7-----------------------|
|--------------------------|
     "I might be an..."


CHORUS
|---------------------------------------------------------------------|
|---------------------------------------------------------------------|
|--14-14-14-14-14-14-14-14-12-12-12-12-11-11-11-11-7-7-7-7-7-7-7-7-7--|
|--14-14-14-14-14-14-14-14-12-12-12-12-11-11-11-11-7-7-7-7-7-7-7-7-7--|
|--12-12-12-12-12-12-12-12-10-10-10-10--9--9--9--9-5-5-5-5-5-5-5-5-5--|
|---------------------------------------------------------------------|


Repeat    INTRO
          VERSE


LAST CHORUS
|-------------------------------------------------------------------|
|-------------------------------------------------------------------|
|--14-14-14-14-14-14-14-14-12-12-12-12-11-11-11-11-7-7-7-7-7-7-7-7--|
|--14-14-14-14-14-14-14-14-12-12-12-12-11-11-11-11-7-7-7-7-7-7-7-7--|
|--12-12-12-12-12-12-12-12-10-10-10-10--9--9--9--9-5-5-5-5-5-5-5-5--|
|-------------------------------------------------------------------| x3

|------------------------------------------------------------------------|
|------------------------------------------------------------------------|
|--14--14-14-14-14-14-14-16--16-16-17--17-17-19-19-19-19-19-19-19-19-19--|
|---x---x--x--x--x--x--x--x---x--x--x---x--x--x--x--x--x--x--x--x--x--x--|
|--12--12-12-12-12-12-12-14--14-14-15--15-15-17-17-17-17-17-17-17-17-17--|
|------------------------------------------------------------------------|





Legend 
========
x    | Mute Note 
PM   | Palm Muting 
b    | Bend Note
~    | Hold Note 



Feedback and requests (DBX/GWAR/X-Cops/Death Piggy tabs only) are welcomed.

--DH
====================================================
Tap to rate this tab
 
# A B C D E F G H I J K L M N O P Q R S T U V W X Y Z