Song name
# A B C D E F G H I J K L M N O P Q R S T U V W X Y Z

Dave Brockie Experience - Beat Stall tab

All strings tuned helf-step down.


INTRO
"I think I got it at the..."
|--------------------------------------------------------------------------|
|--------------------------------------------------------------------------|
|--7-4--7-4-------7-4--7-4-------7-4--7-4--*3b-3p0--7-4--7-4---------------|
|--7-4--7-4--*3b--7-4--7-4-------7-4--7-4-----------7-4--7-4---------------|
|--5-2--5-2-------5-2--5-2-------5-2--5-2-----------5-2--5-2--\Pickslide\--|
|---------------------------7\\--------------------------------\\Down\\\\--|


VERSE
|-----------------------------------------------------|
|-----------------------------------------------------|
|-----------------------------------------------------|
|-----------------------------------------------------|
|--5-2--5-2b--2-2-2-2-2-2-2-5-2--5-2b--2-2-2-2-2-2-2--|
|-----------------------------------------------------| x2
PM            . . . . . . .            . . . . . . .

|-------------------------|
|-------------------------|
|-------------------------|
|--5-5-5-5-3-2-3-3-3-2-0--|
|-------------------------|
|-------------------------|


|---------------------------|
|---------------------------|
|--7-4--7-4--4-4-4-4-4-4-4--|
|--7-4--7-4--4-4-4-4-4-4-4--|
|--5-2--5-2--2-2-2-2-2-2-2--|
|---------------------------| x4
PM           . . . . . . .

|------------------------------------------------------------------------|
|------------------------------------------------------------------------|
|-------------------------------------3-3-3--2-0-------------------------|
|--5-5-5-5-3-2-3-3-3-2-0--5-5-5-5-3-2-------------5-5-5-5-3-2-3-3-3-2-0--|
|------------------------------------------------------------------------|
|------------------------------------------------------------------------|


CHORUS
|----------------------------------------------------------------------|
|----------------------------------------------------------------------|
|--7-4--7-4-------7-4--7-4-------7-4--7-4--*3b--7-4--7-4---------------|
|--7-4--7-4--*3b--7-4--7-4-------7-4--7-4-------7-4--7-4---------------|
|--5-2--5-2-------5-2--5-2-------5-2--5-2-------5-2--5-2--\Pickslide\--|
|---------------------------7\\----------------------------\\Down\\\\--|


ENDING
|-----------------------------|
|-----------------------------|
|--2-2-2-2-0-3-2-0---0-0-2----|
|------------------3-------3--|
|-----------------------------|
|-----------------------------| x4

|------------------------------|
|------------------------------|
|-------------------------7-4--|
|--5-5-5-5-3-2-3-3-3-2-0--7-4--|
|-------------------------5-2--|
|------------------------------|




Legend 
======== 
*    | Pinch Harmonic 
b    | Bend Note 
\    | Slide Down
p    | Pull-Off
PM   | Palm Muting 
~    | Hold Note 



Feedback and requests (DBX/GWAR/X-Cops/Death Piggy tabs only) are welcomed.

--DH
====================================================
Tap to rate this tab
 
# A B C D E F G H I J K L M N O P Q R S T U V W X Y Z