Song name
# A B C D E F G H I J K L M N O P Q R S T U V W X Y Z

Dave Brockie Experience - Iranian Masturbator tab

Clean Guitar

       E   E   S  E   S  E   S  S  S S E     E  E  S E  S S  S S S  S S E   
D#||--------------------------------------|--------------------------------|
A#||--------------------------------------|--------------------------------|
F#||------12-----12-----12-----12s-9---9--|-----5----5----5s-7---7s-2---2--|
C#||--------------------------------------|--------------------------------|
G#||--12------12-----12-----12-------9----|--5-----5----5------7------2----|
D#||--------------------------------------|--------------------------------|


  E  E  S E  S E  S E  S S S     E  E  S E  S S  S S S  S S S  S   
------------------------------|----------------------------------||
------------------------------|----------------------------------||
-----2----2----2----2----2----|-----2----2----5s-2---2s-0---0s-2-||
------------------------------|----------------------------------||
------------------------------|-------------3------0-------------||
--2-----2----2----2----2---xs-|--3-----3------------------3------||

Tap to rate this tab
 
# A B C D E F G H I J K L M N O P Q R S T U V W X Y Z