Song name
# A B C D E F G H I J K L M N O P Q R S T U V W X Y Z

Dave Brockie Experience - I Wanna Be A Squirrel tab

Artist: Dave Brockie eXperience
Song: I Wanna Be a Squirrel
Album: Songs for the Wrong
Year: 2003

Tabbed by: Jussi Sivonen (gurumies@hotmail.com) in 2007-09-08

Wicked song from our dear GWAR-frontman Dave Brockie aka Oderus Urungus. All tabbed and 
to rock your socks!

INTRO:

Oh yes I wanna be a squirrel!

 (D#5)            G#5         D#5        E#5      D#5     C#5    D#5
e---------------|------------------------------------------------------------|
B---------------|------------------------------------------------------------|
G-8-8-8-8-6-5---|-----5~5---5-8-8-10-8---10-12-13-12-10-8-10~--8-5---8-6-5---|
D-------------8-|-6-6-----6------------------------------------------------8-|
A---------------|------------------------------------------------------------|
E---------------|------------------------------------------------------------|

  G#5         D#5           C#5   C5   C#5   D#5
e-----------------------------------------------|
B-----------------------------------------------|
G-----5-5---5-8-8-10-8-10-8-6--/8-5--5-6--6-/8--|
D-6-6-----6-------------------------------------|
A-----------------------------------------------|
E-----------------------------------------------|


Verse 1:

D#5                   G#5
You know I wanna be a squirrel
                         D#5
Without a trouble in the world
            C#5  C5
I'd live up in a tree
           C#5   D#5
And I'd be so happy
                 G#5
Yes I wanna be a squirrel
                     D#5
I also wanna be with you
           C#5      C5
Instead of haunting bars
             C#5    D#5
We'd be out chasing cars


Chorus:

E#5   D#5 C#5   D#5 G#5
When  we  fall  in  love

E#5 D#5    C#5   C5   D#5
We  can't  pick  the  day

E#5       D#5  C#5  D#5 G#5
Squirrels they ne - ver fall

E#5   D#5  C#5 C5    D#5
Hap - pi - er  that  way

Waay! Because I wanna be a squirrel!


Solo:
  D#5             G#5         D#5        E#5      D#5     C#5    D#5
e---------------|------------------------------------------------------------|
B---------------|------------------------------------------------------------|
G-8-8-8-8-6-5---|-----5~5---5-8-8-10-8---10-12-13-12-10-8-10~--8-5-------5---|
D-------------8-|-6-6-----6------------------------------------------------8-|
A---------------|------------------------------------------------------------|
E---------------|------------------------------------------------------------|

  G#5         D#5           C#5   C5   C#5   D#5
e--------------------------------------------------|
B--------------------------------------------------|
G-----5-5---5-8-8-10-8-10-12-13-12-13-15-13-15-17--|
D-6-6-----6----------------------------------------|
A--------------------------------------------------|
E--------------------------------------------------|


Verse 2:

D#5                 G#5
Oh yes I wanna be a squirrel
                               D#5
And would you be my squirrelly girl?
             C#5     C5
I'd throw my nuts at you
            C#5    D#5
And we'd go have a chew
                     G#5
Because I wanna be a squirrel
                  D#5
I also wanna be a Narwhal
          C#5        C5
I'd swim around your boat
               C#5      D#5
And you'd jump down my throat


Chorus:

E#5   D#5 C#5   D#5 G#5
When  we  fall  in  love

E#5 D#5    C#5   C5   D#5
We  can't  pick  the  day

E#5       D#5  C#5  D#5 G#5
Squirrels they ne - ver fall

E#5   D#5  C#5 C5    D#5
Hap - pi - er  that  way


Outro:
(fast picking)
e-----------------------------------------------------|
B-----------------------------------------------------|
G-8-6-5-6-8----8-6-5-6-8----8-6-5---8-6-5---8-6-5-----|
D---------------------------------8-------8-------8-6-|
A-----------------------------------------------------|
E-----------------------------------------------------|

D#5
Whistle while you work
D#5
Hitler was a jerk
D#5
Mussolini
D#5
Bit his wienie
D#5            G#5
Now it doesn't work


LYRICS:
-------

Oh yes I wanna be a squirrel!

You know I wanna be a squirrel
Without a trouble in the world
I'd live up in a tree
And I'd be so happy
Yes I wanna be a squirrel
I also wanna be with you
Instead of haunting bars
We'd be out chasing cars

When we fall in love
We can't pick the day
Squirrels they never fall
Happier that way

Because I wanna be a squirrel!

Oh yes I wanna be a squirrel
And would you be my squirrelly girl?
I'd throw my nuts at you
And we'd go have a chew
Because I wanna be a squirrel
I also wanna be a Narwhal
I'd swim around your boat
And you'd jump down my throat

When we fall in love
We can't pick the day
Squirrels they never fall
Happier that way

Whistle while you work
Hitler was a jerk
Mussolini
Bit his wienie
Now it doesn't work
Tap to rate this tab
# A B C D E F G H I J K L M N O P Q R S T U V W X Y Z