Dave Brubeck - Take Five tab

This is Take 5 how I play it with my friend for 2 classic Guitars
this is just an arrangement and not my own work
thanks for all the guys tabbing this peace ;) you made good work
special thanks to bisette-n for melody .. sry I do not know who tabbed
the solo ... great job thank you...

For the original key tune down guitars one half step
(bE bA bD bg b be) (remember B=H bB=B, german notification)

5/4 Time

PART ONE

Rythm Guitar
e|--------------------|
h|---5-----5-------7--|
g|---4-----4-------7--|
D|---5-----5-------7--| etc. etc.
A|--------------------|
E|-0-----0-----7------|
   1 + 2 + 3 + 4 + 5 +
   E           hm7      ||:  repeat from here (4 times)
e|----------------------|-------------------------|---------------------|
h|-----------------8-10-|-11-12-11-10-8-----------|---------7-8-7-------|
g|---------------9------|---------------------7---|-9-------------9-7---|
D|-------------9--------|-----------------9-------|---------------------|
A|----------------------|-------------------------|---------------------|
E|----------------------|-------------------------|---------------------|
               4 + 5 +    1  +  2  +  3 + 4 + 5 +   1       4   +   5 +
                                             4nd End
e|---------------------|------------------|----|
h|---------------------|-------------8-10-|----|
g|---------7-9-7-------|-----------9------|----|
D|-9-------------9-7---|-9-------9--------|-9--|
A|---------------------|------------------|----|
E|---------------------|------------------|----|
   1       4   +   5 +   1       4 + 5 +

PART 2

Rythm Guitar
e|---------------------|---------------------|---------------------|
h|---5-----5-------5---|---7-----7-------8---|---5-----5-------7---|
g|---4-----4-------5---|---7-----7-------7---|---5-----5-------6---|
D|---5-----5-------5---|---7-----7-------9---|---5-----5-------7---|
A|-3-----3-------------|-------------7-------|-------------5-------|
E|-------------5-------|-7-----7-------------|-5-----5-------------|
   C7+         Am7       Hm7         Em7       Am7         D7+
   1 + 2 + 3 + 4 + 5 +   1 + 2 + 3 + 4 + 5 +   1 + 2 + 3 + 4 + 5 +
e|---------------------|---------------------|---------------------|
h|-5-8---5-------------|---7-----------------|---------------------|
g|---------5-----4-5-6-|-7-----7-------------|---9---9-------------|
D|-------------7-------|---------9-----7-8-9-|10-------7-------7-8-|
A|---------------------|-------------10------|-------------9-10----|
E|---------------------|---------------------|---------------------|


e|----------------------|
h|---3------3-------3---|
g|---4------4-------4---|
D|---3------3-------3---|
A|----------------------|
E|-3-----3------3-------|
   G7
   1 + 2 +  3 + 4 + 5 +
e|----------------------|
h|----------------------|
g|----------7---7-6-7-8-|
D|-9-8-9-10-------------|
A|----------------------|
E|----------------------|

Rythm Guitar
e|---------------------|---------------------|----------------------|
h|---5-----5-------5---|---7-----7-------8---|---5-----5-------7----|
g|---4-----4-------5---|---7-----7-------7---|---5-----5-------6----|
D|---5-----5-------5---|---7-----7-------9---|---5-----5-------7----|
A|-3-----3-------------|-------------7-------|-------------5--------|
E|-------------5-------|-7-----7-------------|-5-----5--------------|
   C7+         Am7       Hm7         Em7       Am7         D7+
   1 + 2 + 3 + 4 + 5 +   1 + 2 + 3 + 4 + 5 +   1 + 2 + 3 + 4 + 5 +
e|---------------------|---------------------|----------------------|
h|-5-8---5-------------|---7-----------------|----------------------|
g|---------5-----4-5-6-|-7-----7-------------|---9---9---------7----|
D|-------------7-------|---------9-----7-8-9-|10-------7-----7---10-|
A|---------------------|-------------10------|-------------9--------|
E|---------------------|---------------------|----------------------|

first End
e|----------------------|
h|---3-----3-------3----|
g|---4-----4-------4----|
D|---3-----3-------3----|
A|----------------------|
E|-3-----3-----3--------|
   G7
   1 + 2 + 3 + 4 + 5 +
e|----------------------|
h|-----------------8-10-|
g|---------------9------|
D|-9-----------9--------|
A|----------------------|
E|----------------------|


Solo (Rythm from Part 1 (E, Hm7)
   1 + 2 + 3 + 4 + 5 +   1 + 2 + 3 + 4 + 5 +   1 + 2 + 3 + 4 + 5 +
e|---------------------|---------------------|12-------------------|
h|12-----------0-------|-------7-8-----------|--12-10--10----------|
g|---------------------|-9-------------------|-------12--9-----12--|
D|---------------------|---------------------|---------------------|
A|---------------------|---------------------|---------------------|
E|---------------------|---------------------|---------------------|
   1 + 2 + 3 + 4 + 5 +   1 + 2 + 3 + 4 + 5 +   1 + 2 + 3 + 4 + 5 +
e|---------------------|---------------------|---------------------|
h|-------------12------|-------8-----7---10--|-------8-----7-------|
g|-9----11h12----------|-9---------9---------|-9---------9---7-----|
D|---------------------|---------------------|-----------------9-7-|
A|---------------------|---------------------|---------------------|
E|---------------------|---------------------|---------------------|
   1 + 2 + 3 + 4 + 5 +   1 + 2 + 3 + 4 + 5 +   1 + 2 + 3 + 4 + 5 +
e|---------------------|---------------7-----|---------------------|
h|-------8-----7---10--|-------8-----7-------|---10----------------|
g|-9---------9---------|-9---------9---------|---------------------|
D|---------------------|---------------------|---------------------|
A|---------------------|---------------------|---------------------|
E|---------------------|---------------------|---------------------|
   1 + 2 + 3 + 4 + 5 +   1 + 2 + 3 + 4 + 5 +   1 + 2 + 3 + 4 + 5 +
e|---------------------|--------------10-7---|---------------------|
h|---8---7-------------|---10--------------8-|---------------------|
g|---------9-----------|---------------------|-9-------------------|
D|---------------------|---------------------|---------------------|
A|---------------------|---------------------|---------------------|
E|---------------------|---------------------|---------------------|
   1 + 2 + 3 + 4 + 5 +   1 + 2 + 3 + 4 + 5 +   1 + 2 + 3 + 4 + 5 +
e|---------------------|---------------------|-7-----9-----7---12--|
h|-------7-------------|-------7-------7-8-10|-----------10--------|
g|-9---------7-9---10--|-9---------7-9-------|---------------------|
D|---------------------|---------------------|---------------------|
A|---------------------|---------------------|---------------------|
E|---------------------|---------------------|---------------------|
   1 + 2 + 3 + 4 + 5  +    1 + 2 + 3 + 4 + 5 +   1 + 2 + 3 + 4 + 5 +
e|-7-----9-----7-9-10-12-|-14----------2-------|-12----9-------------|
h|-----------10----------|---------------------|---------10----------|
g|-----------------------|---------------------|---------------------|
D|-----------------------|---------------------|---------------------|
A|-----------------------|---------------------|---------------------|
E|-----------------------|---------------------|---------------------|
   1 + 2  +    3 + 4 + 5 +    1 + 2 + 3 + 4 + 5 +   1 + 2 + 3 + 4 + 5 +
e|-10-----------------------|---------------------|---------------------|
h|--------10h8h7-----7-8-10-|12-------------------|------10-----8-7-----|
g|---------------7-9--------|--9-----9------------|-----------------9-7-|
D|--------------------------|---------------------|-7-------------------|
A|--------------------------|---------------------|---------------------|
E|--------------------------|---------------------|---------------------|

e|---------------------|---------------------|---------------------|----|
h|-------10------7-8---|------10-----8-7-----|-------7-------------|----|
g|-------------9-------|-----------------9-7-|-----------7-9---7-6-|----|
D|-7-------------------|-7-------------------|-7-------------------|-9--|
A|---------------------|---------------------|---------------------|----|
E|---------------------|---------------------|---------------------|----|


ok this is it, easiest way to play it, also good for beginners
if you have comments or wishes please e-mail me at
knopf-im-ohr@web.de
Tap to rate this tab
 
# A B C D E F G H I J K L M N O P Q R S T U V W X Y Z