Song name
# A B C D E F G H I J K L M N O P Q R S T U V W X Y Z

Dave Days - 7 Thing tab

7 things

davedays http://ca.youtube.com/watch?v=9geiPp9UFI0

tabbed by: anthony bain

tuning: drop c

e|--------------------------------------------------------------------------|
B|--------------------------------------------------------------------------|
G|-----9-9-9-9-9-9-9-9-9-9-9-9-9-9-9-9-X-9-9-9-9-9-9-9-9-9-9-9-9-9-9-9-9----|
D|-------------------------------------X------------------------------------|
A|-------------------------------------X------------------------------------|
C|-----7-7-7-7-7-7-7-7-7-7-7-7-7-7-7-7-X-7-7-7-7-7-7-7-7-6-6-6-6-6-6-6-6----|

e|--------------------------------------------------------------------------|
B|--------------------------------------------------------------------------|
G|--6-6-6-6-6-6-6-6-4-4-4-4-4-4-4-4-2-2-2-2-2-2-2-2-4-4-4-4-4-4-4-4---------|
D|--------------------------------------------------------------------------|
A|--------------------------------------------------------------------------|
C|--4-4-4-4-4-4-4-4-2-2-2-2-2-2-2-2-0-0-0-0-0-0-0-0-2-2-2-2-2-2-2-2---------|

YOU DO THIS OVER AND OVER TIL IT ENDS IT IS SO EASY THANX HOPE YOU LIKE IT!!!!
Tap to rate this tab
# A B C D E F G H I J K L M N O P Q R S T U V W X Y Z