Song name
# A B C D E F G H I J K L M N O P Q R S T U V W X Y Z

Dave Days - Love Story tab

Hi!
This is my first tab. i hope you like it.

intro/vers
  E   |------------------------------------------------------------|
  B   |----------0-0-0------0-0-0--------0-0-0-----0-0-0-----------|
  G   |-----------2-2-2------2-2-2------2-2-2-2---2-2-2-2----------|
  D   |--------2----------2------------0---------0-----------------|
  A   |-------0----------0-----------------------------------------|
  E   |------------------------------------------------------------|
        .....................Mute notes.......................

  E   |------------------------------------------------------------|
  B   |----------0-0-0-----0-0-0--------0-0-0-----0-0-0------------|
  G   |---------2-2-2-2---2-2-2-2------2-2-2-2---2-2-2-2-----------|
  D   |--------4---------4------------0---------0------------------|
  A   |------------------------------------------------------------|
  E   |------------------------------------------------------------|
         ..................................................

guitar 2

  E   |--------------------------------------------------------------|
  B   |------------------------------------0------0------0-----0-----|
  G   |---------2------2-----2------2-----2------2------2-----2------|
  D   |--------2------2-----2------2-----0------0------0-----0-------|
  A   |-------0------0-----0------0----------------------------------|
  E   |--------------------------------------------------------------|


  E   |---------------------------------------------------------------|
  B   |--------0------0------0-------0--------0--------0--------0-----|
  G   |-------2------2------2-------2--------2--------2--------2------|
  D   |------4------4------4-------4--------0--------0--------0-------|
  A   |---------------------------------------------------------------|
  E   |---------------------------------------------------------------|
Tap to rate this tab
# A B C D E F G H I J K L M N O P Q R S T U V W X Y Z