Song name
# A B C D E F G H I J K L M N O P Q R S T U V W X Y Z

Dave Days - Katies Song tab

                            DaveDays
                          Katie's Song
if wanting 2 contact me about tabs or just 2 chat visit my profile nd get all of my details

this is my first of many dave days tabs

e|-8-8-8-8-8-8-8-8-|
B|--6-6-6-6-6-6-6-6|
G|-----------------|
D|-----------------|
A|-8-------8-------|
E|-----------------|

Verse:

e|-8-8-8-8-8-8-8-8-|
B|--6-6-6-6-6-6-6-6|
G|-------------0-0-|
D|---------8-8-----|
A|-8-8-8-8---------|
E|-----------------|   x4


Chorus

e|----------------------|
B|-9-9-10-10-9-9-9-9----|
G|--9-9-9---9-9-9-9-9---|
D|----------------------|
A|----------------------|
E|----------------------|   x3

Then:

e|-------------|
B|-9-9-10-10---|
G|--9-9--9--9--|
D|-------------|
A|-------------|
E|-------------|

In the video, it's played:
Intro;
Verse;
Chorus;
Intro;
Verse, but 3x;
Video of Alan;
Chorus;
Intro;
One bar of the Chorus.
Tap to rate this tab
 
# A B C D E F G H I J K L M N O P Q R S T U V W X Y Z