Song name
# A B C D E F G H I J K L M N O P Q R S T U V W X Y Z

Dave Days - My Last Song For Miley tab

-------------------------------------------------------------------------------
			    My Last Song for Miley - Dave Days
-------------------------------------------------------------------------------
Tabbed by: Tim B
Email: tim@guitardemos.com

Tuning: Standard

INTRO (This is the basic pattern, use your ear/rhythm to get the feeling right)  
VERSE

This has been going on...........

e|-----------------------------------------------------------------------|
B|-----------------------------------------------------------------------|
G|--------7----7------7----7--------7----7-------7----7--------7-----7---|
D|--------7----7------7----7--------7----7-------7----7--------7-----7---|
A|---5-5-----5----5-5----5-----------------------------------------------|
E|------------------------------7-7----7----7-7-----7------5-5-----5-----|

--------------------------------------------------|
--------------------------------------------------|
-----7-----7---------7------7------7-----7--------|
-----7-----7---------7------7------7-----7--------|
-----------------4-4------4----4-4-----4----------|
5-5------5----------------------------------------|

e|----------------------------|
B|----------------------------|
G|------7----7-----7----7-----|  (The last 2 shapes, on the 4 & Open A  
A|--0-0----0---0-0----0-------|   can be swapped around both sound okay) 
D|------7----7-----7----7-----|
E|----------------------------|

BRIDGE
Chords are Played together quickly.

e|-----------------------------------|
B|-----------------------------------|
G|--7--------------------------------|
D|--7--7--9--11-12-12----------------|
A|--5--7--9--11-12-12-(strum out)----|
E|-----5--7--9--10-10----------------|

giving ups not easy...........

e|---------------------------------|
B|---------------------------------|
G|---------------------------------|
D|---7--------------5--------------|
A|---7-(Strum Out)--5--(Strum Out)-|
E|---5--------------3--------------|

its hard enough to say...........

CHORUS

    D5 B5 A5  G5        D5
e|-----------------------------|
B|-----------------------------|
G|--7--------------------------|
D|--7--9--7--5----------7------|
A|--5--9--7--5--back to 7------|
E|-----7--5--3----------5------|


D5
as much as i make believe

B5
you're not really here with me

A5
what was i thinking from the beginning

G5                 A5
you didn't care at all



Back to couple of bars of thee Intro / the Solo riff (Have not figured this out yet) 

so here's your last song.... SOLO
(Just Play D5, A5, G5 END ON A5)

Then palm mute starts (2 X) 


D5                 B5
I can leave it all behind

                          A5
or take another chance to find you

               G5 (Strum out / then back to A5)
no where in sight

REPEATE (there is some layering going on here using octaves bases around these chords)
going to the movies alone
every scenes that's shown
reminds me of you

back to 

BRIDGE
Chords are Played together quickly.

giving ups not easy...........


e|-----------------------------------|
B|-----------------------------------|
G|--7--------------------------------|
D|--7--7--9--11-12-12----------------|
A|--5--7--9--11-12-12-(strum out)----|
E|-----5--7--9--10-10----------------|



CHORUS

    D5 B5 A5  G5        D5
e|-----------------------------|
B|-----------------------------|
G|--7--------------------------|
D|--7--9--7--5----------7------|
A|--5--9--7--5--back to 7------|
E|-----7--5--3----------5------|


D5
as much as i make believe

B5
you're not really here with me

A5
what was i thinking from the beginning

G5                 A5
you didn't care at all

and again to: 

All that's left are the memories
constantly haunting me
i'm giving up it's time to grow up
you're not around and we're not in love


And on to the breakdown... 
Play quickly together:

D5, A5, G5, A5 

B5                              A5

laying around in around in this hotel room 


D5, A5, G5, A5 

B5                              A5

too much to think about nothing to do


Play around with playing D5, A5, G5, A5 quickly, over :


she's not coming back she's not coming back


she's not coming back she's not coming back


she's not coming back she's not coming back


she's not coming back she's not coming back


Then ending on: 


B5                                     A5
she's not coming back she's not coming back 



Okay slow part (Just the intro pattern played as chords) play:


e|----------------------------------|
B|----------------------------------|
G|---7------7----7----- 7-----------|
D|---7------7----7------7-----------|
A|---5------x----x------4-----------|
E|----------7----5------x-----------|

e|----------|
B|----------|
G|--7-------|  
D|--7-------|
A|--0-------|
E|--x-------|



D5


D5
this love is crazy

A5                  (Pause) Pick Scrape 
unpredictable  maybe 

G5
you'll melt my heart like you did from the start

A5                  B5
all over again it's not the end


Then play - A5, B5 2 X  

                        A5, B5 (play a few times.. Listen to the track)

so here's your last song....

Then:

A5, B5 - C#5, D5, E5 (again can be played as octaves)

back into to 

A5, B5 


yeah we made it out - END with C#5, D5, E5 , D5 END ON E5




************************************

| /   slide up
| \   slide down
| h   hammer-on
| p   pull-off
| ~   vibrato
| +   harmonic
| x   Mute note
| b   Bend
| pb  Pre-bend
| br  Bend release
| pbr Pre-bend release
| brb Bend release bend

************************************

Tap to rate this tab
 
# A B C D E F G H I J K L M N O P Q R S T U V W X Y Z