Song name
# A B C D E F G H I J K L M N O P Q R S T U V W X Y Z

Dave Days - Fred Drives Me Crazy tab

Dave Days - Fred Drives Me Crazy

Tabbed By: FRr3AkOnALEaSh (smokin_05@hotmail.com)
Tuning: 6 String Tuned Standard (E A D G B e)

Vocal: Dave Days
Guitar: Dave Days
Keyboard: Dave Days

Riff 1 (Intro)(Guitar 1)
E|-----|-----------|------------|------------|
B|-----|-----------|------------|------------|
G|-----|-----------|--9---------|--5\4~--8~--|
D|--5--|--5\4~--2--|--9-9~--10--|--5\4~--8~--|
A|--5--|--5\4~--2--|--7-9~--10--|--3\2~--5~--|
E|--3--|--3\2~--0--|----7~---8--|------------|

Riff 2 (Chorus)(Guitar 1)
E|------------------------|--------------------|
B|------------------------|--------------------|
G|------------------------|--55-555-555-555-5--|
D|--55-x-44-x--22-2-22-2--|--55-555-555-555-5--|
A|--55-x-44-x--22-2-22-2--|--33-333-333-333-3--|
E|--33-x-22-x--00-0-00-0--|--------------------|

Riff 3 (Verse)(Guitar 1)
E|--------------------------|
B|--------------------------|
G|----------------5------7--|
D|--5------2------5------7--|
A|--5------2------3------5--|
D|--3------0----------------|

Riff 4 (Verse)(Guitar 2)
E|--------------------------|--------------------|
B|--------------------------|--------------------|
G|--7-7-7--9-9--7-----------|--9-9--1111--12-12--|
D|--5-5-5--7-7--5--4h5-4h5--|--7-7---9-9--10-10--|
A|--------------------------|--------------------|
E|--------------------------|--------------------|

Riff 5 (Bridge)(Guitar 1)
E|----------------------------|
B|----------------------------|
G|----------------4-5~----7~--|
D|--5~----4-2~----4-5~----7~--|
A|--5~----4-2~----2-3~----5~--|
E|--3~----2-0~----------------|

Riff 6 (Bridge)(Guitar 2)
E|---------------------|-----------------------------|
B|---------------------|-----------------------------|
G|---------------------|-----------------------------|
D|--5-5-5--7-7--5-5-5--|--7-7--9-9--10-10--10-10--5--|
A|---------------------|-----------------------------|
E|---------------------|-----------------------------|
    . . .  . .  . . .     . .  . .  .  .   .  .   .   PM

NOTE: Listen to the song to structure out each riff.
Tap to rate this tab
 
# A B C D E F G H I J K L M N O P Q R S T U V W X Y Z