Song name
# A B C D E F G H I J K L M N O P Q R S T U V W X Y Z

Dave Days - Olive You tab

-----------------------------------------------------------------------------
	             OLIVE YOU - Dave Days ft Kimmi Smiles
-----------------------------------------------------------------------------
Tabbed by: yinlingk
Email: akyl_2004@hotmail.com

Tuning: Standard




[Riff A]
e--------------------------------------------------|
B-----0---0---0---0---0---0---0---0----------------|
G-----1---1---1---1---6---6---4---4/6--------------|
D--------------------------------------------------|
A-------------------4---4---2---2------------------|
E---0---0---0---0----------------------------------|


e--------------------------------------------------|
B-----0---0---0---0---0---0---0---0----------------|
G-----1---1---1---1---6---6---4---4/6--------------|
D--------------------------------------------------|
A-------------------4---4---2---2------------------|
E-------0---0---0----------------------------------|


[Verse] (x4)
e--------------------------------------------------|
B-----0---0---0---0---0---0---0---0----------------|
G-----1---1---1---1---6---6---4---4/6--------------|
D--------------------------------------------------|
A-------------------4---4---2---2------------------|
E-------0---0---0----------------------------------|


[Chorus]
e--------------------------------------------------|
B-----2---2---4---4---5---5---0---0----------------|
G-----2---2---4---4---6---6---1---1----------------|
D--------------------------------------------------|
A---0---0---2---2---4---4--------------------------|
E---------------------------0---0------------------|

e--------------------------------------------------|
B-----2---2---4---4---5---5---9---9----------------|
G-----2---2---4---4---6---6---9---9----------------|
D--------------------------------------------------|
A---0---0---2---2---4---4---7---7------------------|
E--------------------------------------------------|

e--------------------------------------------------|
B-----2---2---4---4---5---5---0---0----------------|
G-----2---2---4---4---6---6---1---1----------------|
D--------------------------------------------------|
A---0---0---2---2---4---4--------------------------|
E---------------------------0---0------------------|

e--------------------------------------------------|
B-----2---2---0---0---4---4---5---4----------------|
G-----2---2---1---1---4---4---6---4----------------|
D--------------------------------------------------|
A---0---0-----------2---2---4---2------------------|
E-----------0---0----------------------------------|


[Bridge]
e--------------------------------------------------|
B-----2---2---2---2---5---5---5---5----------------|
G-----2---2---2---2---6---6---6---6----------------|
D--------------------------------------------------|
A---0---0---0---0---4---4---4---4------------------|
E--------------------------------------------------|
   You, you........

e--------------------------------------------------|
B-----2---2---2---2---5---5---4---4----------------|
G-----2---2---2---2---6---6---4---4----------------|
D--------------------------------------------------|
A---0---0---0---0---4---4---2---2------------------|
E--------------------------------------------------|
   I, I, I ........

e--------------------------------------------------|
B-----2---2---2---2---4---4---4---4----------------|
G-----2---2---2---2---4---4---4---4----------------|
D--------------------------------------------------|
A---0---0---0---0---2---2---2---2------------------|
E--------------------------------------------------|
   I'll let it .....

e--------------------------------------------------|
B-----5---5---5---5---2---2---4---4----------------|
G-----6---6---6---6---2---2---4---4----------------|
D--------------------------------------------------|
A---4---4---4---4---0---0---2---2------------------|
E--------------------------------------------------|
   Those 2 words ...


[Outro] (x2)
e---------------------------7---7------------------|
B---9---9---7---7---9---9--------------------------|
G-----9---9---9---9---9---9---9---9----------------|
D--------------------------------------------------|
A--------------------------------------------------|
E--------------------------------------------------|



[Riff A]-[Verse]-[Chorus]
[Riff A]-[Verse]-[Chorus]
[Riff A]-[Bridge]-[Chorus]
[Riff A]-[Outro]


[Riff A]

[Verse]
Can't get the words out of my mouth
That little feeling everyone talks about
The things you say like I miss your face
I wanna let you know but I can't get the words to go so

[Chorus]
Olive you and everything you do
What two words can mean afraid to say the other three
Olive you the words are coming true
I don't know what to say but olive you

[Riff A]

[Verse]
Can't fight the feeling I feel inside
I try to tell you but I always hide
The things you say like I want you to stay right
Here by my side and let the words slide

[Chorus]
Olive you and the little things you do
What two words can mean afraid to say the other three
Olive you the words are coming true
I don't know what to say but olive you

[Riff A]
Olive you olive you olive you
Olive you olive you olive you
I love you
Olive you olive you olive you
Olive you olive you olive you
I love you

[Bridge]
You, you wanna tell me, but I-I-I-I don't know how to say it
I'll let it out what's been on my mind
Those two words need an I love...

[Chorus]
I love you and everything you do
These two words mean what I meant to say with three
I love you never felt so smooth
All I can say is I love you

[Riff A]
I love you
I love you
Olive you olive you olive you
Olive you olive you olive you
I love you
Olive you olive you olive you
Olive you olive you olive you

[Outro]
Tap to rate this tab
 
# A B C D E F G H I J K L M N O P Q R S T U V W X Y Z