Dave Days - Olive You tab

hey all you guitarist this is one of my faveorite songs and i think it sounds preety good.
                             (x6)
E--------------------------------------------------------------|
B--------------------------------------------------------------|
G---1----------6---------4------                    6        1-|
D---2--(x4)----6--(x4)---4--(x3)then slide up to    6  then  2-|
A------------4---------2--------                  4------------|
E-0------------------------------------------------------------|
                                         (x3)
E--------------------------------------------|
B---2----------------------------------------|
G---2----------4----------6----------9-------|
D-----(x2)-----4--(x2)----6--(x2)----9-------|(x2)
A-0----------2----------4----------7---------|
E--------------------------------------------|

E----------------------|
B---2------------------|
G---2----------6-------|
D------(x4)----6-------|(x4)
A-0----------4---------|
E----------------------|

First Verse (x6)

Second Verse (x3)

Third Verse

First Verse (x4)
                              (x2)
E---------------------------------|
B---2-----------------------------|
G---2----------6----------4-------|
D------(x4)----6--(x2)----4-------|(x2)
A-0----------4----------2---------|
E---------------------------------|

First Verse (x2)

Second Verse then last note to the end
Tap to rate this tab
 
# A B C D E F G H I J K L M N O P Q R S T U V W X Y Z