Guitaretab - guitar tabs
Song name
# A B C D E F G H I J K L M N O P Q R S T U V W X Y Z

Dave Days - Olive You tab

-------------------------------------------------------------------------------
			     Olive You - Dave Days Featuring Kimmi Smiles
-------------------------------------------------------------------------------
Tabbed by: Metalkamikazee
Email: metalkamikazee@gmail.com

Tuning:Standard
Please Rate and Comment
Here's the Video Link: http://www.youtube.com/watch?v=DDmZnb9t_Jg

*updated chorus*

INTRO
e|-----0-----0-----0-----0-----4-----4-----2-----2/------------|
B|-----0-----0-----0-----0-----5-----5-----4-----4/------------|
G|-----1-----1-----1-----1-----6-----6-----4-----4/------------|
D|-------------------------------------------------------------|
A|--------------------------4-----4-----2-----2----------------|
E|--0-----0-----0-----0----------------------------------------|

e|--0-----0-----0-----0-----4-----4-----2-----2/---------------|
B|--0-----0-----0-----0-----5-----5-----4-----4/---------------|
G|--1-----1-----1-----1-----6-----6-----4-----4/---------------|(5x)
D|-------------------------------------------------------------|
A|-----------------------4-----4-----2-----2-------------------|
E|-----0-----0-----0-------------------------------------------|

CHORUS
e|-----0-----0-----2-----2-----4-----4-----7-----7-------------|
B|-----2-----2-----4-----4-----5-----5-----9-----9-------------|
G|-----2-----2-----4-----4-----6-----6-----9-----9-------------|(3x)
D|-------------------------------------------------------------|
A|--0-----0-----2-----2-----4-----4-----7-----7----------------|
E|-------------------------------------------------------------|

e|-----0-----0-----0-----0-----2-----2-----4-----2-------------|
B|-----2-----2-----0-----0-----4-----4-----5-----4-------------|
G|-----2-----2-----1-----1-----4-----4-----6-----4-------------|
D|-------------------------------------------------------------|
A|--0-----0-----------------2-----2-----4-----2----------------|
E|---------------0----0----------------------------------------|

VERSE 1
e|-----0-----0-----0-----0-----4-----4-----2-----2/------------|
B|-----0-----0-----0-----0-----5-----5-----4-----4/------------|
G|-----1-----1-----1-----1-----6-----6-----4-----4/------------|
D|-------------------------------------------------------------|
A|--------------------------4-----4-----2-----2----------------|
E|--0-----0-----0-----0----------------------------------------|

e|--0-----0-----0-----0-----4-----4-----2-----2/---------------|
B|--0-----0-----0-----0-----5-----5-----4-----4/---------------|
G|--1-----1-----1-----1-----6-----6-----4-----4/---------------|(5x)
D|-------------------------------------------------------------|
A|-----------------------4-----4-----2-----2-------------------|
E|-----0-----0-----0-------------------------------------------|
[ Tab from: http://www.guitaretab.com/d/dave-days/243848.html ]
CHORUS
e|-----0-----0-----2-----2-----4-----4-----7-----7-------------|
B|-----2-----2-----4-----4-----5-----5-----9-----9-------------|
G|-----2-----2-----4-----4-----6-----6-----9-----9-------------|(3x)
D|-------------------------------------------------------------|
A|--0-----0-----2-----2-----4-----4-----7-----7----------------|
E|-------------------------------------------------------------|

e|-----0-----0-----0-----0-----2-----2-----4-----2-------------|
B|-----2-----2-----0-----0-----4-----4-----5-----4-------------|
G|-----2-----2-----1-----1-----4-----4-----6-----4-------------|
D|-------------------------------------------------------------|
A|--0-----0-----------------2-----2-----4-----2----------------|
E|---------------0----0----------------------------------------|

BRIDGE
e|-----0-----0-----0-----0-----4-----4-----2-----2-------------|
B|-----0-----0-----0-----0-----5-----5-----4-----4-------------|
G|-----1-----1-----1-----1-----6-----6-----4-----4-------------|(4x)
D|-------------------------------------------------------------|
A|--------------------------4-----4-----2-----2----------------|
E|--0-----0-----0-----0----------------------------------------|

e|-----0-----0-----0-----0-----4-----4-----2-----2-------------|
B|-----2-----2-----2-----2-----5-----5-----4-----4-------------|
G|-----2-----2-----2-----2-----6-----6-----4-----4-------------|(2x)
D|-------------------------------------------------------------|
A|--0-----0-----0-----0-----4-----4-----2-----2----------------|
E|-------------------------------------------------------------|

e|-----0-----0-----0-----0-----4-----4-----2-----2-------------|
B|-----0-----0-----0-----0-----5-----5-----4-----4-------------|
G|-----1-----1-----1-----1-----6-----6-----4-----4-------------|(2x)
D|-------------------------------------------------------------|
A|--------------------------4-----4-----2-----2----------------|
E|--0-----0-----0-----0----------------------------------------|

VERSE 2
e|-----0-----0-----2-----2-----4-----4-----7-----7-------------|
B|-----2-----2-----4-----4-----5-----5-----9-----9-------------|
G|-----2-----2-----4-----4-----6-----6-----9-----9-------------|(10x)
D|-------------------------------------------------------------|
A|--0-----0-----2-----2-----4-----4-----7-----7----------------|
E|-------------------------------------------------------------|

OUTRO
e|--4-----4-----2-----2-----4-----4-----7-----7----------------|
B|-----5-----5-----5-----5-----5-----5-----5-----5-------------|
G|-------------------------------------------------------------|(2x)
D|-------------------------------------------------------------|
A|-------------------------------------------------------------|
E|-------------------------------------------------------------|

Hope you guys like it
Related for Olive You tab
Olive You chords by Dave Days