Song name
# A B C D E F G H I J K L M N O P Q R S T U V W X Y Z

Dave Days - Youve Been On My Mind chords

Highlighted       Show chord diagrams
You've Been On My Mind - Dave Days

Use power-chords or full chords, whatever you think sounds the best! :D

    E             G#m              C#m          A
e|--------------------------------------------------------------|
B|--------------------------------------------------------------|
G|---------1------------------------------6---------------------|
D|---------2---------------6--------------6--------------7------|
A|-------------------------6-------4--4------------------7------|
E|--0--0-----------4--4-4------------------------5--5-5---------|  x2


E       G#m         C#m         A
I don't know how we happened we just kind of did
E     G#m       C#m       Am          E
I was being sarcastic and asked for a kiss
E           G#m     C#m 
You've been on my mind
    A
Woa oh oh
E           G#m     C#m 
You've been on my mind
    A
Woa oh oh


E       G#m          C#m         A
I don't know what to call us but you're cool with that
E      G#m       C#m         A
I told you I was nervous you smiled and laughed
E           G#m     C#m 
You've been on my mind
    A
Woa oh oh
E           G#m     C#m 
You've been on my mind
    A
Woa oh oh

E               A
I won't say goodbye

                E   G#m        C#m       A
I won't let you go, all alone, keep me inside
         E            G#m               C#m       A
When I'm strung out, full of doubt, You keep me alive
E                      G#m                       C#m         A
With the smile on your face and the hair in your eyes
        A               E
I won't let you go this time
        G#m          C#m        
I won't let you go
      A
Won't let you go


E          G#m         C#m               A
I've lost track of the days since you've entered my life
E        G#m              C#m      A
They all think that we're crazy, I tell them their right
E           G#m     C#m 
You've been on my mind
    A
Woa oh oh
E           G#m     C#m 
You've been on my mind
    A
Woa oh oh

E               A
I won't say goodbye
(I won't say it, I won't say it)
E               A
I won't say goodbye


                E   G#m        C#m       A
I won't let you go, all alone, keep me inside
         E            G#m               C#m       A
When I'm strung out, full of doubt, You keep me alive
E                      G#m                       C#m         A
With the smile on your face and the hair in your eyes
        A               E
I won't let you go this time
        G#m          C#m        
I won't let you go
      A
Won't let you go


Solo
   E        G#m     C#m   A        E       G#m     C#m    A
e|--0---4-------2------------------0---4-------2---4-5-4--------|
B|----------4-------5-4-0-2----------------4--------------2-----|
G|--------------------------------------------------------------|
D|--------------------------------------------------------------|
A|--------------------------------------------------------------|
E|--------------------------------------------------------------|

   E        G#m     C#m   A        E        G#m     C#m   A
e|--0---4-------2---0-2-4-5-4-2-----0---4-------2------------------|
B|----------4-------------------------------4-------5-4-0-2--0-----|
G|-------------------------------------------------------------2-1-|
D|-----------------------------------------------------------------|
A|-----------------------------------------------------------------|
E|-----------------------------------------------------------------|



E               A
I won't say goodbye
E               A
I won't say goodbye
E               A
I won't say goodbye
E               A   E
You've been on my mind


                E   G#m        C#m       A
I won't let you go, all alone, keep me inside
         E            G#m               C#m       A
When I'm strung out, full of doubt, You keep me alive
E                      G#m                       C#m         A
With the smile on your face and the hair in your eyes
        A               E
I won't let you go this time
        G#m          C#m        
I won't let you go
      A
Won't let you go


E           G#m     C#m 
You've been on my mind
    A
Woa oh oh
(I won't let you, I won't let you go)  x2
Tap to rate this tab
 
# A B C D E F G H I J K L M N O P Q R S T U V W X Y Z