Song name
# A B C D E F G H I J K L M N O P Q R S T U V W X Y Z

Dave Days - What Does It Take tab

Intro/Verse
E|------------------|
B|------------------|
G|-77-777-766-66666-|
D|-77-777-777-77777-|  x2
A|------------------|
E|------------------|

E|------------------|           
B|------------------|           
G|-77-777-766-66666-|                         
D|-55-555-555-55555-|  x2            
A|------------------|           
E|------------------|  

Piano
E|------------------|
B|-------10-(10)-7--|
G|-7-(7)------------|
D|------------------|  
A|------------------|
E|------------------|              

Pre-Chorus ...Whoa-oh, Whoa-oh...
E|------------|
B|-xxxx--xx7~-|
G|-xxxx--xx7~-|
D|-xxxx--xx7~-| 
A|-xxxx--xx5~-|
E|------------|

Chorus
E|-------------------------------------|
B|-33333333----------------------------|
G|-44444444-44444444-77777777-22222222-|
D|-44444444-55555555-77777777-22222222-| 
A|-22222222-55555555-55555555-00000000-|
E|----------33333333-------------------|


Chorus End
E|---|
B|---|
G|-7-|
D|-7-| 
A|-5-|
E|---|

Synth
E|-------------------------|----------------10-9------|
B|-10----------------------|-10------------------10-7-|
G|----11-9----9-7-9-11-9-7-|----11-9----9-7-----------|
D|-------------------------|--------------------------| x2
A|-------------------------|--------------------------|
E|-------------------------|--------------------------|

Bridge
E|-------------------------------------|
B|-------------------------------------|
G|-77777777-77777777-------------------|
D|-77777777-77777777-55555555-55555555-|  
A|-55555555-55555555-55555555-55555555-|
E|-------------------33333333-33333333-|

Song

Intro
Verse x2
Pre-Chorus
Chorus x2
Chorus End
Intro/Synth
Verse x2
Pre-Chorus
Chorus x2
Bridge
Chorus
Tap to rate this tab
 
# A B C D E F G H I J K L M N O P Q R S T U V W X Y Z