Song name
# A B C D E F G H I J K L M N O P Q R S T U V W X Y Z

Dave Days - Who Says tab

-----------------------------------------------------------------------------
			     Who Says - Dave Days
-----------------------------------------------------------------------------
Tabbed by: Easy Chords
Facebook PM Me: http://www.facebook.com/sscammyo (Don't hesitate to PM me)

I tabbed this out by ear. So it should not be 100% perfect. This is also my first tab 
and if you have anything to add or corrections make sure you comment or PM me. Enjoy :)

Tuning:Drop D DADGBE

Intro & Verse
0:21
Guitar 1
e|--------------------------------------------------------------------------|
B|--------------------------------------------------------------------------|
G|-------------5------------------------------------------------------------|  x2
D|-------------5(x17)-------------------------------------------------------|
A|-------------7------------------------------------------------------------|
D|-5-4-2-0------------------------------------------------------------------|

Guitar 2
0:24
e|--------------------------------------------------------------------------|
B|--------------------------------------------------------------------------|
G|--------------------------------------------------------------------------|
D|----0-------00---5~----9---99------5~---5~--55----------------------------|
A|----0-------00---5~----9---99------5~---5~--55----------------------------|
D|----0-------00---5~----9---99------5~---5~--55----------------------------|

Chorus
0:42

Guitar 1 (It's hard for me to hear the lead part. Someone please tab it for me?)
e|--------------------------------------------------------------------------|
B|--------------------------------------------------------------------------|
G|--------------------------------------------------------------------------|
D|--------------------------------------------------------------------------|
A|--------------------------------------------------------------------------|
D|--------------------------------------------------------------------------|

Guitar 2
e|--------------------------------------------------------------------------|
B|--------------------------------------------------------------------------|
G|--------------------------------------------------------------------------|
D|000000000000-4-5555555555555555--9999999999999999-5555555555555555-0~-----|
A|000000000000-4-5555555555555555--9999999999999999-5555555555555555-0~-----|
D|000000000000-4-5555555555555555--9999999999999999-5555555555555555-0~-----|

Verse
1:04

Guitar 1
e|--------------------------------------------------------------------------|
B|--------------------------------------------------------------------------|
G|--------------------------------------------------------------------------|
D|--------------------------------------------------------------------------|
A|--------------------------------------------------------------------------|
D|--------------------------------------------------------------------------|

Guitar 2
e|--------------------------------------------------------------------------|
B|--------------------------------------------------------------------------|
G|--------------------------------------------------------------------------|
D|---5--7-\-----0--------5-------9-------5----------------------------------|
A|---5--7-\-----0(x16)---5(x16)--9(x16)--5(x16)-----------------------------|
D|---5--7-\-----0--------5-------9-------5----------------------------------|
               PM~~~~

Na Na Na
1:24

Guitar 1
e|--------------------------------------------------------------------------|
B|--------------------------------------------------------------------------|
G|-------------------5------------------------------------------------------| x2
D|----*Pick Slide*---5(x17)-------------------------------------------------|
A|-------------------7------------------------------------------------------|
D|--------------------------------------------------------------------------|

Guitar 2
e|--------------------------------------------------------------------------|
B|--------------------------------------------------------------------------|
G|--------------------------------------------------------------------------|
D|----0-------00---5~----9---99------5~---5~--55----------------------------|
A|----0-------00---5~----9---99------5~---5~--55----------------------------|
D|----0-------00---5~----9---99------5~---5~--55----------------------------|

Chorus
1:41

Guitar 2
e|--------------------------------------------------------------------------|
B|--------------------------------------------------------------------------|
G|--------------------------------------------------------------------------|
D|000000000000-4-5555555555555555--9999999999999999-5555555555555555-0~-----|
A|000000000000-4-5555555555555555--9999999999999999-5555555555555555-0~-----|
D|000000000000-4-5555555555555555--9999999999999999-5555555555555555-0~-----|

Bridge
2:04

Guitar 2
e|--------------------------------------------------------------------------|
B|--------------------------------------------------------------------------|
G|--------------------------------------------------------------------------|
D|--5-55-55-5555--9-99-99-9999----5---------------0~------------------------|
A|--5-55-55-5555--9-99-99-9999----5(x13)----------0~------------------------|
D|--5-55-55-5555--9-99-99-9999----5---------------0~------------------------|
                                 PM~~~~~
Outro
2:22

Guitar 2
e|--------------------------------------------------------------------------|
B|--------------------------------------------------------------------------|
G|--------------------------------------------------------------------------|
D|---------*Pick Slide or Slide Down*---------------------------------------|
A|--------------------------------------------------------------------------|
D|--------------------------------------------------------------------------|

e|--------------------------------------------------------------------------|
B|--------------------------------------------------------------------------|
G|--------------------------------------------------------------------------|
D|000000000000-4-5555555555555555--9999999999999999-5555555555555555|0~-0---|
A|000000000000-4-5555555555555555--9999999999999999-5555555555555555|0~-0---|
D|000000000000-4-5555555555555555--9999999999999999-5555555555555555|0~-0---|
                                                                 (x2)
************************************

| /   slide up
| \   slide down
| h   hammer-on
| p   pull-off
| ~   vibrato
| +   harmonic
| x   Mute note
| b   Bend
| pb  Pre-bend
| br  Bend release
| pbr Pre-bend release
| brb Bend release bend

************************************
Tap to rate this tab
 
# A B C D E F G H I J K L M N O P Q R S T U V W X Y Z