Song name
# A B C D E F G H I J K L M N O P Q R S T U V W X Y Z

Dave Days - What Does It Take Acoustic tab

Dave Days - What does it take (acoustic)
by Nicola_Rizzo
17/08/2011

I tried to play the song how Dave plays it in Raw Session video
In the intro/verse he stops the 6th string with the thumb(but i don't do it)

tuning: DADGBE  (remember to depress the 6th string)
        654321

Capo 2

Intro
 A                                    D
|-------------------------------|    |-------------------------------|
|2---2-2---2-2-2-2---2-2---2-2-2|    |3---3-3---3-3-3-3---3-3---3-3-3|
|2---2-2---2-2-2-1---1-1---1-1-1| x2 |2---2-2---2-2-2-1---1-1---1-1-1| x2
|2---2-2---2-2-2-2---2-2---2-2-2|    |0---0-0---0-0-0-0---0-0---0-0-0|
|0---0-0---0-0-0-0---0-0---0-0-0|    |0---0-0---0-0-0-0---0-0---0-0-0|
|-------------------------------|    |0---0-0---0-0-0-0---0-0---0-0-0|


Verse

 A                                    D                                   
|-------------------------------|    |-------------------------------|   \
|2---2-2---2-2-2-2---2-2---2-2-2|    |3---3-3---3-3-3-3---3-3---3-3-3|   |All
|2---2-2---2-2-2-1---1-1---1-1-1| x2 |2---2-2---2-2-2-1---1-1---1-1-1| x2|x2
|2---2-2---2-2-2-2---2-2---2-2-2|    |0---0-0---0-0-0-0---0-0---0-0-0|   |
|0---0-0---0-0-0-0---0-0---0-0-0|    |0---0-0---0-0-0-0---0-0---0-0-0|   |
|-------------------------------|    |0---0-0---0-0-0-0---0-0---0-0-0|   /


Bridge 1

 A                                    D
|-------------------------------|    |-------------------------------|
|-------------------------------|    |-------------------------------|
|-------------------------------| x2 |-------------------------------|
|2-2-2-2-2-2-2-2-2-2-2-2-2-2-2-2|    |-------------------------------|
|0-0-0-0-0-0-0-0-0-0-0-0-0-0-0-0|    |0-0-0-0-0-0-0-0-0-0-0-0-0-0-0-0|
|-------------------------------|    |0-0-0-0-0-0-0-0-0-0-0-0-0-0-0-0|

 D               E
|----------------0-0-0-0-0---x-x---x-x---|
|----------------0-0-0-0-0---x-x---x-x---|
|----------------1-1-1-1-1---x-x---x-x---|
|----------------2-2-2-2-2---x-x---x-x---|
|0-0-0-0-0-0-0-0-2-2-2-2-2---x-x---x-x---|
|0-0-0-0-0-0-0-0-2-2-2-2-2---x-x---x-x---|


Chorus

Play as chords
 F#      D       A       E         x3
|2|     |2|     |0|     |0|
|2|     |3|     |2|     |0|
|2|     |2|     |2|     |1|
|4|     |0|     |2|     |2|
|4|     |0|     |0|     |2|
|-|     |0|     |-|     |2|


 D               E
|2|             |0|
|3|             |0|
|2|             |1|
|0|             |2|
|0|             |2|
|0|             |2|


 E
|0---x---x---x---x---------|
|0-------------------------|
|1-------------------------|
|2-------------------------|
|2-------------------------|
|2-------------------------|


Intro

Verse

Bridge 1

Chorus

Bridge

A                                 D
|-----------------------------------------------------------------|
|----2-------2-------2--------2-------2-------2-------2-------2---|
|--2---2---2---2---2---2----2---2---2---2---2---2---2---2---2---2-|
|-----------------------------------------------------------------|
|0-------0-------0--------0---------------------------------------|
|---------------------------------0-------0-------0-------0-------|

A                                 D               D       E
|-------------------------------------------------2-2-2-2-0-0-0-0-|
|----2-------2-------2--------2-------2-------2---3-3-3-3-0-0-0-0-|
|--2---2---2---2---2---2----2---2---2---2---2---2-2-2-2-2-1-1-1-1-|
|-------------------------------------------------0-0-0-0-2-2-2-2-|
|0-------0-------0--------0-----------------------0-0-0-0-2-2-2-2-|
|---------------------------------0-------0-------0-0-0-0-2-2-2-2-|


Something like a Solo

I am working on it, if you can help me write to nicola.rizzo96@yahoo.it


Chorus

Bridge 3
I'm working on it blablabla

Final
The same



Lyrics

I woke up 
In the middle of the night 
Out of luck 
With this girl on my mind 
She got away now 
I'm trying to explain how 

I fell in love 
That's what I like to call it 
But not enough 
It's like I never saw it 
Drifting away I 
Am finding words to say 
But it all goes 

Mmhh x8

What does it take to get you 
If I never met you 
I wouldn't have ran 
Across the country like 
I'm out of my mind 
What does it take to hold you 
When I'm here without you 
I don't know where to start 
I gotta find you and your heart 
Before it falls apart 

I stayed up 
In the dead of the night 
I made plans 
If they turn out right 
You'll close your eyes and 
Think about the times when 
We fell in love 
But didn't try to say it 
Knew what it was 
The moment that we played it 
We all lose sometimes 
I can't get her off my mind

Mmhh x8

What does it take to get you 
If I never met you 
I wouldn't have ran 
Across the country like 
I'm out of my mind 
What does it take to hold you
When I'm here without you
I don't know where to start 
I gotta find you and your heart 
Before it falls apart 

What does it take to make it real 
The world still spins and 
I'm still feelin' 
Your hand right next to mine 
I play it back a thousand times 
I wish I took a photograph 
For every moment that we laughed 
I'm hung up and can't relax 
Because she's so far away 

What does it take to get you 
If I never met you 
I wouldn't have ran 
Across the country like 
I'm out of my mind 
What does it take to hold you 
When I'm here without you 
I don't know where to start 
I gotta find you and your heart 
Before it falls apart 

Whoa Whoa x8

Before it falls apart



Leave a comment if there is something wrong or if you liked it :D
Tap to rate this tab
# A B C D E F G H I J K L M N O P Q R S T U V W X Y Z