Song name
# A B C D E F G H I J K L M N O P Q R S T U V W X Y Z

Dave Days - First Kiss tab

First Kiss By Dave Days
Transposed by: metalkamikazee
email @: metalkamikazee@gmail.com 
I mainly tab punk songs
my cover: http://www.youtube.com/watch?v=BhVvpdRF_qA

e|---------------------------------------------------------------------|
B|---------------------------------------------------------------------|
G|-------6--6--6---7-----2--------2----2----2--------------------------|
D|-------6--6--6---7-----2--------2----2----2--------------------------|   ( 3X )
A|-------4--4--4---5-----0--------0----0----0--------------------------|
E|---------------------------------------------------------------------|

e|---------------------------------------------------------------------|
B|-------------------------------------------------------------9----10-|
G|----4--4--4--4--4--4--4--4-------2----2----------7-------------------|
D|----4--4--4--4--4--4--4--4-------2----2------------------------------|
A|----2--2--2--2--2--2--2--2-------0----0------------------------------|
E|---------------------------------------------------------------------|

e|---------------------------------------------------------------------|
B|---------------------------------------------------------------------|
G|-------6--6--6---7-----2--------2----2----2--------------------------|
D|-------6--6--6---7-----2--------2----2----2--------------------------|   ( 3X )
A|-------4--4--4---5-----0--------0----0----0--------------------------|
E|---------------------------------------------------------------------|

e|---------------------------------------------------------------------|
B|---------------------------------------------------------------------|
G|----4--4--4--4--4--4--4--4-------2----2------------------------------|
D|----4--4--4--4--4--4--4--4-------2----2------------------------------|
A|----2--2--2--2--2--2--2--2-------0----0----------12-----9------------|
E|---------------------------------------------------------------10----|

e|---------------------------------------------------------------------|
B|---------------------------------------------------------------------|
G|----------------7------------7------------9------------7-------------|
D|----------------7------------7------------9------------7--------9----|   ( 4X )
A|------5---5---5---5---5---5---5---5---7---5---5---5------------------|
E|---------------------------------------------------------------------|

e|---------------------------------------------------------------------|
B|---------------------------------------------------------------------|
G|-----7--7--7--7--7--7--7--7--------9---11---9------------------------|
D|-----7--7--7--7--7--7--7--7--------9---11---9------------------------|
A|-----5--5--5--5--5--5--5--5--------7----9---7------------------------|
E|---------------------------------------------------------------------|

e|---------------------------------------------------------------------|
B|---------------------------------------------------------------------|
G|----------------7------------7------------9------------7-------------|
D|----------------7------------7------------9------------7-------------|   ( 2X )
A|------5---5---5---5---5---5---5---5---7---5---5---5------------------|
E|---------------------------------------------------------------------|

e|---------------------------------------------------------------------|
B|---------------------------------------------------------------------|
G|-----7--7--7--7--7--7--7--7--------9---11---9------------------------|
D|-----7--7--7--7--7--7--7--7--------9---11---9------------------------|
A|-----5--5--5--5--5--5--5--5--------7----9---7------------------------|
E|---------------------------------------------------------------------|




e|----------------------------------------------------------------------------------|
B|----------------------------------------------------------------------------------|
G|---7-----------------4-----------------7---------------4------------------2-------|
D|---7( 16X )---------4----( 16X )------7---(16 X)------4( 8X )-----------2-------|
A|---5-----------------2-----------------5---------------2------------------0-------|
E|----------------------------------------------------------------------------------|

e|----------------------------------------------------------------------------------|
B|-------------------------------------------------------------------------9---11---|
G|----7---------------4----------------2---------------2----2-----7-----------------|
D|----7( 32X )-------4---( 16X )------2( 8 X )-------2----2-----------------------|
A|----5---------------2----------------0---------------0----0-----------------------|
E|----------------------------------------------------------------------------------|

e|------------------10-10-10-10-9-9-9-9-7-7-7-7------------------------------------------------|
B|--------------------------------------------------------10-10-10-10-8-8-8-8-7-7-7-7----------|
G|---7----------------------------------------------------------------------------------7----7-|
D|---7-( 32X )---------------------------------------------------------------------------------|
A|---5-----------------------------------------------------------------------------------------|
E|---------------------------------------------------------------------------------------------|

e|---------------------------------------------------------------------------|
B|---------------------------------------------------------------------------|
G|---------------------------------------------------------------------------|
D|---------------------------------------------------------------------------|
A|---------12------9---------------------------------------------------------|
E|-------------------------10------------------------------------------------|



e|---------------------------------------------------------------------------|
B|---------------------------------------------------------------------------|
G|----------------7------------7------------9------------7-------------------|
D|----------------7------------7------------9------------7-------------------|   ( 2X )
A|------5---5---5---5---5---5---5---5---7---5---5---5------------------------|
E|---------------------------------------------------------------------------|

e|---------------------------------------------------------------------------|
B|---------------------------------------------------------------------------|
G|-----7--7--7--7--7--7--7--7--------9---11---9------------------------------|
D|-----7--7--7--7--7--7--7--7--------9---11---9------------------------------|
A|-----5--5--5--5--5--5--5--5--------7----9---7------------------------------|
E|---------------------------------------------------------------------------|

e|---------------------------------------------------------------------------|
B|---------------------------------------------------------------------------|
G|----------------7------------7------------9------------7-------------------|
D|----------------7------------7------------9------------7-------------------|   ( 2X )
A|------5---5---5---5---5---5---5---5---7---5---5---5------------------------|
E|---------------------------------------------------------------------------|

e|---------------------------------------------------------------------------|
B|---------------------------------------------------------------------------|
G|-----7--7--7--7--7--7--7--7--------9---11---9------------------------------|
D|-----7--7--7--7--7--7--7--7--------9---11---9------------------------------|
A|-----5--5--5--5--5--5--5--5--------7----9---7------------------------------|
E|---------------------------------------------------------------------------|


e|---------------------------------------------------------------------------|
B|---------------------------------------------------------------------------|
G|---7-----------------4-----------------7---------------4---------------2---|
D|---7( 16X )---------4----( 16X )------7---(16 X)------4( 8X )--------2---|
A|---5-----------------2-----------------5---------------2---------------0---|
E|---------------------------------------------------------------------------|

e|---------------------------------------------------------------------------|
B|--------------------------------------------------------------------9---11-|
G|----7---------------4----------------2------------2----2-----7-------------|
D|----7( 32X )-------4---( 16X )------2( 8 X )----2----2-------------------|
A|----5---------------2----------------0------------0----0-------------------|
E|---------------------------------------------------------------------------|

e|------------------10-10-10-10-9-9-9-9-7-7-7-7------------------------------------------------|
B|--------------------------------------------------------10-10-10-10-8-8-8-8-7-7-7-7----------|
G|---7----------------------------------------------------------------------------------7----7-|
D|---7-( 32X )---------------------------------------------------------------------------------|
A|---5-----------------------------------------------------------------------------------------|
E|---------------------------------------------------------------------------------------------|

e|---------------------------------------------------------------------------|
B|---------------------------------------------------------------------------|
G|---------------------------------------------------------------------------|
D|---------------------------------------------------------------------------|
A|---------12------9---------------------------------------------------------|
E|-------------------------10------------------------------------------------|



<< Piano Solo Stuff Here >>

e|---------------------------------------------------------------------------|
B|---------------------------------------------------------------------------|
G|-----7----------------4--------------2-------------------------------------|
D|-----7---( 24X )------4----( 8X )----2-------------------------------------|
A|-----5----------------2--------------0-------------------------------------|
E|---------------------------------------------------------------------------|

e|-----------------------------------------------------------------------------|
B|-----------------------------------------------------------------------------|
G|----7---------------4----------------2---------------------------------------|  ( 2X )
D|----7( 32X )-------4---( 16X )------2( 16 X )------------------------------|
A|----5---------------2----------------0---------------------------------------|
E|-----------------------------------------------------------------------------|

e|------------------10-10-10-10-9-9-9-9-7-7-7-7------------------------------------------------|
B|--------------------------------------------------------10-10-10-10-8-8-8-8-7-7-7-7----------|
G|---7----------------------------------------------------------------------------------7----7-|
D|---7-( 32X )---------------------------------------------------------------------------------|
A|---5-----------------------------------------------------------------------------------------|
E|---------------------------------------------------------------------------------------------|

e|---------------------------------------------------------------------------|
B|---------------------------------------------------------------------------|
G|---------------------------------------------------------------------------|
D|---------------------------------------------------------------------------|
A|---------12------9---------------------------------------------------------|
E|-------------------------10----------10------------------------------------|

Tap to rate this tab
 
# A B C D E F G H I J K L M N O P Q R S T U V W X Y Z