Song name
# A B C D E F G H I J K L M N O P Q R S T U V W X Y Z

Dave Days - Want U Back tab

Capo on 2nd fret


By the way, it's this version of the song: 
http://www.youtube.com/watch?v=vt_pzFK4JZI


Follow the basic pattern that's played in the beat. It's also repeated throughout 
the song, except the chorus is just strumming these chords.



E|------------------------------------------------------------|
B|------------------------------------------------------------|
G|------------------------------------------------6-----------|
D|--7---7-----7---7-7---------7---7-----7---7-7---7-----------|
A|--7---7---x-7-x-7-7---------7---7---x-7-x-7-7---4-----------|
E|--5---5---x-5-x-5-5---------5---5---x-5-x-5-5---------------|


E|------------------------------------------------------------|
B|------------------------------------------------------------|
G|------------------------------------------------------------|
D|--4---4-----4---4-4---------4---4-----4---4-4---2-----------|
A|--4---4---x-4-x-4-4---------4---4---x-4-x-4-4---2-----------|
E|--2---2---x-2-x-2-2---------2---2---x-2-x-2-2---0-----------|

Tap to rate this tab
 
# A B C D E F G H I J K L M N O P Q R S T U V W X Y Z