Song name
# A B C D E F G H I J K L M N O P Q R S T U V W X Y Z

Dave Days - What Does It Take Acoustic tab

What Does It Take Acoustic (2013)- Boy You'll forget - Dave Days
by Christoph Roß

I tried to do a tab as accurate as possible. Hope you enjoy :D

Tuning: Drop D (DADGBE)
No capo

Intro

|-02-0-----|
|---4-2402-|
|----------|
|----------|
|----------|
|----------|


|------------------------------------------------------|
|------------------------------------------------------|
|------------------------------------------------------|
|-2-2--2-2-2--2-1-1--1-1-1--1-2-2--2-2-2--2-1-1--1-1-1-|
|-2-2--2-2-2--2-2-2--2-2-2--2-2-2--2-2-2--2-2-2--2-2-2-|
|-2-2--2-2-2--2-2-2--2-2-2--2-2-2--2-2-2--2-2-2--2-2-2-|

|------------------------------------------------------|
|------------------------------------------------------|
|------------------------------------------------------|
|-1-2-2--2-2-2--2-1-1--1-1-1--1-2-2--2-2-2--2-1--------|
|-1-0-0--0-0-0--0-0-0--0-0-0--0-0-0--0-0-0--0-0--------|
|-2----------------------------------------------------|

Verse

(I woke up in the middle of the night..)
|------------------------------------------------------|
|------------------------------------------------------|
|------------------------------------------------------|
|-2-2--2-2-2--2-1-1--1-1-1--1-2-2--2-2-2--2-1-1--1-1-1-|
|-2-2--2-2-2--2-2-2--2-2-2--2-2-2--2-2-2--2-2-2--2-2-2-|
|-2-2--2-2-2--2-2-2--2-2-2--2-2-2--2-2-2--2-2-2--2-2-2-|

(she got away now I'm trying to explain how)
|------------------------------------------------------|
|------------------------------------------------------|
|------------------------------------------------------|
|-1-2-2--2-2-2--2-1-1--1-1-1--1-2-2--2-2-2--2-1--------|
|-1-0-0--0-0-0--0-0-0--0-0-0--0-0-0--0-0-0--0-0--------|
|-2----------------------------------------------------| x2

|-0407424-|
|---------|
|---------|
|---------|
|---------|
|---------|

Pre-chorus

(WHOAAA...)
|---0---0--|
|----------|
|--4-4-4-4-|
|-2---2----|
|----------|
|----------|

Chorus

(What does it take to get you...)
|-4--4-5---5-7---7-2----|
|--5----5-----5-----4-4-|
|---4----4-----4-----4--|
|-----------------------|
|-----------------------|
|-----------------------|

(I don't know where to start I gotta find…)
|-4-4-4-5-2-2-2-2-2|hold
|--5-5-5-5-4-4-4-4-|
|------------------|
|------------------|
|------------------|
|------------------|

Solo

|-0-7-4-2-0-2-4-2-0-7-4-2-12-11-7-4-2-7-4-2-0-2-4-2-0-7-7-9-4-0-7-0-12-11-4-7-|
|-----------------------------------------------------------------------------|
|-----------------------------------------------------------------------------|
|-----------------------------------------------------------------------------|
|-----------------------------------------------------------------------------|
|-----------------------------------------------------------------------------|

Verse 2

(I stayed up in the dead of the night…)
|---x---x---x---x---x---x---x---x---x---x---x---x---x---x---|
|---x---x---x---x---x---x---x---x---x---x---x---x---x---x---|
|---x---x---x---x---x---x---x---x---x---x---x---x---x---x---|
|-22x222x222x222x222x222x222x222x222x222x222x222x222x222x22-|
|-22x222x222x222x222x222x222x222x200x000x000x000x000x000x00-|
|-22x222x222x222x222x222x222x222x2--------------------------|

|-0407424-|
|---------|
|---------|
|---------|
|---------|
|---------|

Pre-chorus

(WHOAA..)
|---0---0--|
|----------|
|--4-4-4-4-|
|-2---2----|
|----------|
|----------|

Chorus
(What does it take to get you..)
|-4--4-5---5-7---7-2----|
|--5----5-----5-----4-4-|
|---4----4-----4-----4--|
|-----------------------|
|-----------------------|
|-----------------------|

(I don't know where to start..)
|-4-4-4-5-2-2-2-2-2|
|--5-5-5-5-4-4-4-4-|
|------------------|
|------------------|
|------------------|
|------------------|

Bridge

(What does it take to make it real the world still spins..)

hold
|---------------|
|---------------|
|---------------|
|-2---2---2---2-|
|-2---0---2---0-|
|-2-------2-----|

in the background
(I wish I took a photograph for…)
|---0---0--|
|----------|
|--4-4-4-4-|
|-2---2----|
|----------|
|----------|

(What does it take to get you)
|-4--4-5---5-7---7-2----|
|--5----5-----5-----4-4-|
|---4----4-----4-----4--|
|-----------------------|
|-----------------------|
|-----------------------|

Solo 2

|--------------0-2-0-2-4-5-4-4-0-2-0-2-4-4-12-14-16-16-17-16-14-12-14--16-14-11-12-|
|-12-10-9-10-7---------------------------------------------------------------------|
|----------------------------------------------------------------------------------|
|----------------------------------------------------------------------------------|
|----------------------------------------------------------------------------------|
|----------------------------------------------------------------------------------|


Chorus

(What does it take to get you if I never met you..)
|-4--4-5---5-7---7-2----|
|--5----5-----5-----4-4-|
|---4----4-----4-----4--|
|-----------------------|
|-----------------------|
|-----------------------|

(I don't know where to start..)
|-4-4-4-5-2-2-2-2-2|
|--5-5-5-5-4-4-4-4-|
|------------------|
|------------------|
|------------------|
|------------------|


Ending

(Whooaa)
|------------------------------------------------------|
|------------------------------------------------------|
|------------------------------------------------------|
|-2-2--2-2-2--2-1-1--1-1-1--1-2-2--2-2-2--2-1-1--1-1-1-|
|-2-2--2-2-2--2-2-2--2-2-2--2-2-2--2-2-2--2-2-2--2-2-2-|
|-2-2--2-2-2--2-2-2--2-2-2--2-2-2--2-2-2--2-2-2--2-2-2-|

|------------------------------------------------------|
|------------------------------------------------------|
|------------------------------------------------------|
|-1-2-2--2-2-2--2-1-1--1-1-1--1-2-2--2-2-2--2-1--------|
|-1-0-0--0-0-0--0-0-0--0-0-0--0-0-0--0-0-0--0-0--------|
|-2----------------------------------------------------|

|---0---0--|
|----------|
|--4-4-4-4-|
|-2---2----|
|----------|
|----------|


10/05/2013
Tap to rate this tab
 
# A B C D E F G H I J K L M N O P Q R S T U V W X Y Z